  0
SECTION
  2
HEADER
  9
$ACADVER
  1
AC1015
  9
$ACADMAINTVER
 70
     6
  9
$DWGCODEPAGE
  3
ANSI_1254
  9
$INSBASE
 10
0.0
 20
0.0
 30
0.0
  9
$EXTMIN
 10
0.0
 20
0.0
 30
0.0
  9
$EXTMAX
 10
279.4
 20
215.9
 30
0.0
  9
$LIMMIN
 10
0.0
 20
0.0
  9
$LIMMAX
 10
279.4
 20
215.9
  9
$ORTHOMODE
 70
     0
  9
$REGENMODE
 70
     1
  9
$FILLMODE
 70
     1
  9
$QTEXTMODE
 70
     0
  9
$MIRRTEXT
 70
     1
  9
$LTSCALE
 40
1.0
  9
$ATTMODE
 70
     1
  9
$TEXTSIZE
 40
3.5
  9
$TRACEWID
 40
1.0
  9
$TEXTSTYLE
  7
Standard
  9
$CLAYER
  8
0
  9
$CELTYPE
  6
ByLayer
  9
$CECOLOR
 62
   256
  9
$CELTSCALE
 40
1.0
  9
$DISPSILH
 70
     0
  9
$DIMSCALE
 40
1.0
  9
$DIMASZ
 40
3.5
  9
$DIMEXO
 40
1.0
  9
$DIMDLI
 40
3.75
  9
$DIMRND
 40
0.0
  9
$DIMDLE
 40
0.0
  9
$DIMEXE
 40
1.0
  9
$DIMTP
 40
0.0
  9
$DIMTM
 40
0.0
  9
$DIMTXT
 40
3.5
  9
$DIMCEN
 40
2.5
  9
$DIMTSZ
 40
0.0
  9
$DIMTOL
 70
     0
  9
$DIMLIM
 70
     0
  9
$DIMTIH
 70
     1
  9
$DIMTOH
 70
     1
  9
$DIMSE1
 70
     0
  9
$DIMSE2
 70
     0
  9
$DIMTAD
 70
     1
  9
$DIMZIN
 70
     0
  9
$DIMBLK
  1

  9
$DIMASO
 70
     1
  9
$DIMSHO
 70
     1
  9
$DIMPOST
  1

  9
$DIMAPOST
  1

  9
$DIMALT
 70
     0
  9
$DIMALTD
 70
     3
  9
$DIMALTF
 40
0.0393700787
  9
$DIMLFAC
 40
1.0
  9
$DIMTOFL
 70
     1
  9
$DIMTVP
 40
0.0
  9
$DIMTIX
 70
     0
  9
$DIMSOXD
 70
     0
  9
$DIMSAH
 70
     0
  9
$DIMBLK1
  1

  9
$DIMBLK2
  1

  9
$DIMSTYLE
  2
ISO-25
  9
$DIMCLRD
 70
     0
  9
$DIMCLRE
 70
     0
  9
$DIMCLRT
 70
     0
  9
$DIMTFAC
 40
1.0
  9
$DIMGAP
 40
1.524
  9
$DIMJUST
 70
     0
  9
$DIMSD1
 70
     0
  9
$DIMSD2
 70
     0
  9
$DIMTOLJ
 70
     0
  9
$DIMTZIN
 70
     0
  9
$DIMALTZ
 70
     0
  9
$DIMALTTZ
 70
     0
  9
$DIMUPT
 70
     0
  9
$DIMDEC
 70
     2
  9
$DIMTDEC
 70
     2
  9
$DIMALTU
 70
     2
  9
$DIMALTTD
 70
     3
  9
$DIMTXSTY
  7
Standard
  9
$DIMAUNIT
 70
     0
  9
$DIMADEC
 70
     2
  9
$DIMALTRND
 40
0.0
  9
$DIMAZIN
 70
     0
  9
$DIMDSEP
 70
    44
  9
$DIMATFIT
 70
     3
  9
$DIMFRAC
 70
     0
  9
$DIMLDRBLK
  1

  9
$DIMLUNIT
 70
     2
  9
$DIMLWD
 70
    -2
  9
$DIMLWE
 70
    -2
  9
$DIMTMOVE
 70
     0
  9
$LUNITS
 70
     2
  9
$LUPREC
 70
     2
  9
$SKETCHINC
 40
1.0
  9
$FILLETRAD
 40
10.0
  9
$AUNITS
 70
     0
  9
$AUPREC
 70
     2
  9
$MENU
  1
.
  9
$ELEVATION
 40
0.0
  9
$PELEVATION
 40
0.0
  9
$THICKNESS
 40
0.0
  9
$LIMCHECK
 70
     0
  9
$CHAMFERA
 40
0.0
  9
$CHAMFERB
 40
0.0
  9
$CHAMFERC
 40
0.0
  9
$CHAMFERD
 40
0.0
  9
$SKPOLY
 70
     0
  9
$TDCREATE
 40
2459741.606110405
  9
$TDUCREATE
 40
2459741.481110405
  9
$TDUPDATE
 40
2459741.606110591
  9
$TDUUPDATE
 40
2459741.481110591
  9
$TDINDWG
 40
0.0000000116
  9
$TDUSRTIMER
 40
0.0000000116
  9
$USRTIMER
 70
     1
  9
$ANGBASE
 50
0.0
  9
$ANGDIR
 70
     0
  9
$PDMODE
 70
     0
  9
$PDSIZE
 40
-1.0
  9
$PLINEWID
 40
0.0
  9
$SPLFRAME
 70
     0
  9
$SPLINETYPE
 70
     6
  9
$SPLINESEGS
 70
     8
  9
$HANDSEED
  5
102
  9
$SURFTAB1
 70
     6
  9
$SURFTAB2
 70
     6
  9
$SURFTYPE
 70
     6
  9
$SURFU
 70
     6
  9
$SURFV
 70
     6
  9
$UCSBASE
  2

  9
$UCSNAME
  2

  9
$UCSORG
 10
0.0
 20
0.0
 30
0.0
  9
$UCSXDIR
 10
1.0
 20
0.0
 30
0.0
  9
$UCSYDIR
 10
0.0
 20
1.0
 30
0.0
  9
$UCSORTHOREF
  2

  9
$UCSORTHOVIEW
 70
     0
  9
$UCSORGTOP
 10
0.0
 20
0.0
 30
0.0
  9
$UCSORGBOTTOM
 10
0.0
 20
0.0
 30
0.0
  9
$UCSORGLEFT
 10
0.0
 20
0.0
 30
0.0
  9
$UCSORGRIGHT
 10
0.0
 20
0.0
 30
0.0
  9
$UCSORGFRONT
 10
0.0
 20
0.0
 30
0.0
  9
$UCSORGBACK
 10
0.0
 20
0.0
 30
0.0
  9
$PUCSBASE
  2

  9
$PUCSNAME
  2

  9
$PUCSORG
 10
0.0
 20
0.0
 30
0.0
  9
$PUCSXDIR
 10
1.0
 20
0.0
 30
0.0
  9
$PUCSYDIR
 10
0.0
 20
1.0
 30
0.0
  9
$PUCSORTHOREF
  2

  9
$PUCSORTHOVIEW
 70
     0
  9
$PUCSORGTOP
 10
0.0
 20
0.0
 30
0.0
  9
$PUCSORGBOTTOM
 10
0.0
 20
0.0
 30
0.0
  9
$PUCSORGLEFT
 10
0.0
 20
0.0
 30
0.0
  9
$PUCSORGRIGHT
 10
0.0
 20
0.0
 30
0.0
  9
$PUCSORGFRONT
 10
0.0
 20
0.0
 30
0.0
  9
$PUCSORGBACK
 10
0.0
 20
0.0
 30
0.0
  9
$USERI1
 70
     0
  9
$USERI2
 70
     0
  9
$USERI3
 70
     0
  9
$USERI4
 70
     0
  9
$USERI5
 70
     0
  9
$USERR1
 40
0.0
  9
$USERR2
 40
0.0
  9
$USERR3
 40
0.0
  9
$USERR4
 40
0.0
  9
$USERR5
 40
0.0
  9
$WORLDVIEW
 70
     1
  9
$SHADEDGE
 70
     3
  9
$SHADEDIF
 70
    70
  9
$TILEMODE
 70
     1
  9
$MAXACTVP
 70
    64
  9
$PINSBASE
 10
0.0
 20
0.0
 30
0.0
  9
$PLIMCHECK
 70
     0
  9
$PEXTMIN
 10
1.0000000000E+20
 20
1.0000000000E+20
 30
1.0000000000E+20
  9
$PEXTMAX
 10
-1.0000000000E+20
 20
-1.0000000000E+20
 30
-1.0000000000E+20
  9
$PLIMMIN
 10
0.0
 20
0.0
  9
$PLIMMAX
 10
420.0
 20
297.0
  9
$UNITMODE
 70
     0
  9
$VISRETAIN
 70
     1
  9
$PLINEGEN
 70
     0
  9
$PSLTSCALE
 70
     1
  9
$TREEDEPTH
 70
  3020
  9
$CMLSTYLE
  2
Standard
  9
$CMLJUST
 70
     0
  9
$CMLSCALE
 40
20.0
  9
$PROXYGRAPHICS
 70
     1
  9
$MEASUREMENT
 70
     1
  9
$CELWEIGHT
370
    -1
  9
$ENDCAPS
280
     0
  9
$JOINSTYLE
280
     0
  9
$LWDISPLAY
290
     1
  9
$INSUNITS
 70
     4
  9
$HYPERLINKBASE
  1

  9
$STYLESHEET
  1

  9
$XEDIT
290
     1
  9
$CEPSNTYPE
380
     0
  9
$PSTYLEMODE
290
     1
  9
$FINGERPRINTGUID
  2
{c815e489-9ef6-4134-bb40-2dc2cee95638}
  9
$VERSIONGUID
  2
{FAEB1C32-E019-11D5-929B-00C0DF256EC4}
  9
$EXTNAMES
290
     1
  9
$PSVPSCALE
 40
0.0
  9
$OLESTARTUP
290
     0
  0
ENDSEC
  0
SECTION
  2
CLASSES
  0
CLASS
  1
ACDBDICTIONARYWDFLT
  2
AcDbDictionaryWithDefault
  3
ObjectDBX Classes
 90
        0
280
     0
281
     0
  0
CLASS
  1
VISUALSTYLE
  2
AcDbVisualStyle
  3
ObjectDBX Classes
 90
     4095
280
     0
281
     0
  0
CLASS
  1
MATERIAL
  2
AcDbMaterial
  3
ObjectDBX Classes
 90
     1153
280
     0
281
     0
  0
CLASS
  1
SCALE
  2
AcDbScale
  3
ObjectDBX Classes
 90
     1153
280
     0
281
     0
  0
CLASS
  1
TABLESTYLE
  2
AcDbTableStyle
  3
ObjectDBX Classes
 90
     4095
280
     0
281
     0
  0
CLASS
  1
MLEADERSTYLE
  2
AcDbMLeaderStyle
  3
ACDB_MLEADERSTYLE_CLASS
 90
     4095
280
     0
281
     0
  0
CLASS
  1
SUN
  2
AcDbSun
  3
SCENEOE
 90
     1153
280
     0
281
     0
  0
CLASS
  1
ACDBPLACEHOLDER
  2
AcDbPlaceHolder
  3
ObjectDBX Classes
 90
        0
280
     0
281
     0
  0
CLASS
  1
LAYOUT
  2
AcDbLayout
  3
ObjectDBX Classes
 90
        0
280
     0
281
     0
  0
ENDSEC
  0
SECTION
  2
TABLES
  0
TABLE
  2
VPORT
  5
8
330
0
100
AcDbSymbolTable
 70
     1
  0
VPORT
  5
29
330
8
100
AcDbSymbolTableRecord
100
AcDbViewportTableRecord
  2
*Active
 70
     0
 10
0.0
 20
0.0
 11
1.0
 21
1.0
 12
139.7
 22
107.95
 13
0.0
 23
0.0
 14
10.0
 24
10.0
 15
10.0
 25
10.0
 16
0.0
 26
0.0
 36
1.0
 17
0.0
 27
0.0
 37
0.0
 40
215.9
 41
1.2941176471
 42
50.0
 43
0.0
 44
0.0
 50
0.0
 51
0.0
 71
     0
 72
  2000
 73
     1
 74
     3
 75
     0
 76
     0
 77
     0
 78
     0
281
     0
 65
     1
110
0.0
120
0.0
130
0.0
111
1.0
121
0.0
131
0.0
112
0.0
122
1.0
132
0.0
 79
     0
146
0.0
  0
ENDTAB
  0
TABLE
  2
LTYPE
  5
5
330
0
100
AcDbSymbolTable
 70
     6
  0
LTYPE
  5
14
330
5
100
AcDbSymbolTableRecord
100
AcDbLinetypeTableRecord
  2
ByBlock
 70
     0
  3

 72
    65
 73
     0
 40
0.0
  0
LTYPE
  5
15
330
5
100
AcDbSymbolTableRecord
100
AcDbLinetypeTableRecord
  2
ByLayer
 70
     0
  3

 72
    65
 73
     0
 40
0.0
  0
LTYPE
  5
16
330
5
100
AcDbSymbolTableRecord
100
AcDbLinetypeTableRecord
  2
Continuous
 70
     0
  3
Solid line
 72
    65
 73
     0
 40
0.0
  0
LTYPE
  5
6E
330
5
100
AcDbSymbolTableRecord
100
AcDbLinetypeTableRecord
  2
HIDDEN
 70
     0
  3
Hidden __ __ __ __ __ __ __ __ __ __ __ __ __ __
 72
    65
 73
     2
 40
1.905
 49
1.27
 74
     0
 49
-0.635
 74
     0
  0
LTYPE
  5
6F
330
5
100
AcDbSymbolTableRecord
100
AcDbLinetypeTableRecord
  2
PHANTOM
 70
     0
  3
Phantom ______  __  __  ______  __  __  ______
 72
    65
 73
     6
 40
12.7
 49
6.35
 74
     0
 49
-1.27
 74
     0
 49
1.27
 74
     0
 49
-1.27
 74
     0
 49
1.27
 74
     0
 49
-1.27
 74
     0
  0
LTYPE
  5
70
330
5
100
AcDbSymbolTableRecord
100
AcDbLinetypeTableRecord
  2
CENTER
 70
     0
  3
Center ____ _ ____ _ ____ _ ____ _ ____ _ ____
 72
    65
 73
     4
 40
10.16
 49
6.35
 74
     0
 49
-1.27
 74
     0
 49
1.27
 74
     0
 49
-1.27
 74
     0
  0
LTYPE
  5
71
330
5
100
AcDbSymbolTableRecord
100
AcDbLinetypeTableRecord
  2
CENTERX2
 70
     0
  3
Center (2x) ________  __  ________  __  _____
 72
    65
 73
     4
 40
20.32
 49
12.7
 74
     0
 49
-2.54
 74
     0
 49
2.54
 74
     0
 49
-2.54
 74
     0
  0
LTYPE
  5
72
330
5
100
AcDbSymbolTableRecord
100
AcDbLinetypeTableRecord
  2
DOT2
 70
     0
  3
Dot (.5x) ........................................
 72
    65
 73
     2
 40
0.635
 49
0.0
 74
     0
 49
-0.635
 74
     0
  0
ENDTAB
  0
TABLE
  2
LAYER
  5
2
330
0
100
AcDbSymbolTable
 70
    17
  0
LAYER
  5
10
330
2
100
AcDbSymbolTableRecord
100
AcDbLayerTableRecord
  2
0
 70
     0
 62
     7
  6
Continuous
370
    -3
390
F
  0
LAYER
  5
73
330
2
100
AcDbSymbolTableRecord
100
AcDbLayerTableRecord
  2
FORMAT
 70
     0
 62
     7
  6
Continuous
370
    -3
390
F
  0
LAYER
  5
74
330
2
100
AcDbSymbolTableRecord
100
AcDbLayerTableRecord
  2
YARDIMCI_GEOMETRI
 70
     0
 62
    -6
  6
Continuous
290
     0
370
    -3
390
F
  0
LAYER
  5
75
330
2
100
AcDbSymbolTableRecord
100
AcDbLayerTableRecord
  2
SAYFA_CERCEVESI
 70
     0
 62
     7
  6
Continuous
370
    25
390
F
  0
LAYER
  5
76
330
2
100
AcDbSymbolTableRecord
100
AcDbLayerTableRecord
  2
ANTET
 70
     0
 62
     7
  6
Continuous
370
    -3
390
F
  0
LAYER
  5
77
330
2
100
AcDbSymbolTableRecord
100
AcDbLayerTableRecord
  2
OLCU
 70
     0
 62
   150
  6
Continuous
370
    -3
390
F
  0
LAYER
  5
78
330
2
100
AcDbSymbolTableRecord
100
AcDbLayerTableRecord
  2
METIN
 70
     0
 62
    96
  6
Continuous
370
    -3
390
F
  0
LAYER
  5
79
330
2
100
AcDbSymbolTableRecord
100
AcDbLayerTableRecord
  2
BALON
 70
     0
 62
     5
  6
Continuous
370
    -3
390
F
  0
LAYER
  5
7A
330
2
100
AcDbSymbolTableRecord
100
AcDbLayerTableRecord
  2
VURGU
 70
     0
 62
     7
  6
Continuous
370
    -3
390
F
  0
LAYER
  5
7B
330
2
100
AcDbSymbolTableRecord
100
AcDbLayerTableRecord
  2
SILIK
 70
     0
 62
     7
  6
Continuous
370
    -3
390
F
  0
LAYER
  5
7C
330
2
100
AcDbSymbolTableRecord
100
AcDbLayerTableRecord
  2
MODEL
 70
     0
 62
     7
  6
Continuous
370
    -3
390
F
  0
LAYER
  5
7D
330
2
100
AcDbSymbolTableRecord
100
AcDbLayerTableRecord
  2
DETAYLANDıRMA
 70
     0
 62
   190
  6
Continuous
370
    -3
390
F
  0
LAYER
  5
7E
330
2
100
AcDbSymbolTableRecord
100
AcDbLayerTableRecord
  2
TOLERANS
 70
     0
 62
   230
  6
Continuous
370
    -3
390
F
  0
LAYER
  5
7F
330
2
100
AcDbSymbolTableRecord
100
AcDbLayerTableRecord
  2
MERKEZ_CIZGILERI
 70
     0
 62
    30
  6
Continuous
370
    -3
390
F
  0
LAYER
  5
80
330
2
100
AcDbSymbolTableRecord
100
AcDbLayerTableRecord
  2
KESIT-DETAY_CIZGILERI
 70
     0
 62
     7
  6
Continuous
370
    -3
390
F
  0
LAYER
  5
81
330
2
100
AcDbSymbolTableRecord
100
AcDbLayerTableRecord
  2
\U+041E\U+0421\U+0415\U+0412\U+042B\U+0415
 70
     0
 62
     7
  6
Continuous
370
    -3
390
F
  0
LAYER
  5
82
330
2
100
AcDbSymbolTableRecord
100
AcDbLayerTableRecord
  2
\U+0412\U+041E\U+0414\U+042F\U+041D\U+042B\U+0415_\U+0417\U+041D\U+0410\U+041A\U+0418
 70
     0
 62
    11
  6
Continuous
370
    -3
390
F
  0
ENDTAB
  0
TABLE
  2
STYLE
  5
3
330
0
100
AcDbSymbolTable
 70
     1
  0
STYLE
  5
11
330
3
100
AcDbSymbolTableRecord
100
AcDbTextStyleTableRecord
  2
Standard
 70
     0
 40
0.0
 41
1.0
 50
0.0
 71
     0
 42
3.5
  3
txt
  4

  0
ENDTAB
  0
TABLE
  2
VIEW
  5
6
330
0
100
AcDbSymbolTable
 70
     0
  0
ENDTAB
  0
TABLE
  2
UCS
  5
7
330
0
100
AcDbSymbolTable
 70
     0
  0
ENDTAB
  0
TABLE
  2
APPID
  5
9
330
0
100
AcDbSymbolTable
 70
     1
  0
APPID
  5
12
330
9
100
AcDbSymbolTableRecord
100
AcDbRegAppTableRecord
  2
ACAD
 70
     0
  0
ENDTAB
  0
TABLE
  2
DIMSTYLE
  5
A
330
0
100
AcDbSymbolTable
 70
     1
100
AcDbDimStyleTable
  0
DIMSTYLE
105
27
330
A
100
AcDbSymbolTableRecord
100
AcDbDimStyleTableRecord
  2
ISO-25
 70
     0
 41
2.5
 42
0.625
 43
3.75
 44
1.25
 73
     0
 74
     0
 77
     1
 78
     8
140
2.5
141
2.5
143
0.0393700787
147
0.625
171
     3
172
     1
178
     0
271
     2
272
     2
274
     3
278
    44
283
     0
284
     8
340
11
  0
ENDTAB
  0
TABLE
  2
BLOCK_RECORD
  5
1
330
0
100
AcDbSymbolTable
 70
     5
  0
BLOCK_RECORD
  5
1F
330
1
100
AcDbSymbolTableRecord
100
AcDbBlockTableRecord
  2
*Model_Space
340
22
  0
BLOCK_RECORD
  5
1B
330
1
100
AcDbSymbolTableRecord
100
AcDbBlockTableRecord
  2
*Paper_Space
340
1E
  0
BLOCK_RECORD
  5
23
330
1
100
AcDbSymbolTableRecord
100
AcDbBlockTableRecord
  2
*Paper_Space0
340
26
  0
BLOCK_RECORD
  5
8B
330
1
100
AcDbSymbolTableRecord
100
AcDbBlockTableRecord
  2
SW_CENTERMARKSYMBOL_0
340
0
102
{BLKREFS
331
96
102
}
  0
BLOCK_RECORD
  5
A9
330
1
100
AcDbSymbolTableRecord
100
AcDbBlockTableRecord
  2
SW_CENTERMARKSYMBOL_1
340
0
102
{BLKREFS
331
B4
102
}
  0
BLOCK_RECORD
  5
D9
330
1
100
AcDbSymbolTableRecord
100
AcDbBlockTableRecord
  2
SW_CENTERMARKSYMBOL_2
340
0
102
{BLKREFS
331
E4
102
}
  0
BLOCK_RECORD
  5
E5
330
1
100
AcDbSymbolTableRecord
100
AcDbBlockTableRecord
  2
SW_CENTERMARKSYMBOL_3
340
0
102
{BLKREFS
331
F0
102
}
  0
ENDTAB
  0
ENDSEC
  0
SECTION
  2
BLOCKS
  0
BLOCK
  5
20
330
1F
100
AcDbEntity
  8
0
100
AcDbBlockBegin
  2
*Model_Space
 70
     0
 10
0.0
 20
0.0
 30
0.0
  3
*Model_Space
  1

  0
ENDBLK
  5
21
330
1F
100
AcDbEntity
  8
0
100
AcDbBlockEnd
  0
BLOCK
  5
1C
330
1B
100
AcDbEntity
 67
     1
  8
0
100
AcDbBlockBegin
  2
*Paper_Space
 70
     0
 10
0.0
 20
0.0
 30
0.0
  3
*Paper_Space
  1

  0
ENDBLK
  5
1D
330
1B
100
AcDbEntity
 67
     1
  8
0
100
AcDbBlockEnd
  0
BLOCK
  5
24
330
23
100
AcDbEntity
  8
0
100
AcDbBlockBegin
  2
*Paper_Space0
 70
     0
 10
0.0
 20
0.0
 30
0.0
  3
*Paper_Space0
  1

  0
ENDBLK
  5
25
330
23
100
AcDbEntity
  8
0
100
AcDbBlockEnd
  0
BLOCK
  5
8C
330
8B
100
AcDbEntity
  8
0
100
AcDbBlockBegin
  2
SW_CENTERMARKSYMBOL_0
 70
     0
 10
0.0
 20
0.0
 30
0.0
  3
SW_CENTERMARKSYMBOL_0
  1

  0
LINE
  5
8E
330
8B
100
AcDbEntity
  8
FORMAT
 62
     0
100
AcDbLine
 10
0.0
 20
0.0
 30
0.0
 11
0.0
 21
2.5
 31
0.0
  0
LINE
  5
8F
330
8B
100
AcDbEntity
  8
FORMAT
 62
     0
100
AcDbLine
 10
0.0
 20
0.0
 30
0.0
 11
-2.5
 21
0.0
 31
0.0
  0
LINE
  5
90
330
8B
100
AcDbEntity
  8
FORMAT
 62
     0
100
AcDbLine
 10
0.0
 20
0.0
 30
0.0
 11
0.0
 21
-2.5
 31
0.0
  0
LINE
  5
91
330
8B
100
AcDbEntity
  8
FORMAT
 62
     0
100
AcDbLine
 10
0.0
 20
0.0
 30
0.0
 11
2.5
 21
0.0
 31
0.0
  0
LINE
  5
92
330
8B
100
AcDbEntity
  8
FORMAT
 62
     0
100
AcDbLine
 10
0.0
 20
5.0
 30
0.0
 11
0.0
 21
71.5
 31
0.0
  0
LINE
  5
93
330
8B
100
AcDbEntity
  8
FORMAT
 62
     0
100
AcDbLine
 10
-5.0
 20
0.0
 30
0.0
 11
-71.5
 21
0.0
 31
0.0
  0
LINE
  5
94
330
8B
100
AcDbEntity
  8
FORMAT
 62
     0
100
AcDbLine
 10
0.0
 20
-5.0
 30
0.0
 11
0.0
 21
-71.5
 31
0.0
  0
LINE
  5
95
330
8B
100
AcDbEntity
  8
FORMAT
 62
     0
100
AcDbLine
 10
5.0
 20
0.0
 30
0.0
 11
71.5
 21
0.0
 31
0.0
  0
ENDBLK
  5
8D
330
8B
100
AcDbEntity
  8
0
100
AcDbBlockEnd
  0
BLOCK
  5
AA
330
A9
100
AcDbEntity
  8
0
100
AcDbBlockBegin
  2
SW_CENTERMARKSYMBOL_1
 70
     0
 10
0.0
 20
0.0
 30
0.0
  3
SW_CENTERMARKSYMBOL_1
  1

  0
LINE
  5
AC
330
A9
100
AcDbEntity
  8
FORMAT
 62
     0
100
AcDbLine
 10
0.0
 20
0.0
 30
0.0
 11
0.0
 21
2.5
 31
0.0
  0
LINE
  5
AD
330
A9
100
AcDbEntity
  8
FORMAT
 62
     0
100
AcDbLine
 10
0.0
 20
0.0
 30
0.0
 11
-2.5
 21
0.0
 31
0.0
  0
LINE
  5
AE
330
A9
100
AcDbEntity
  8
FORMAT
 62
     0
100
AcDbLine
 10
0.0
 20
0.0
 30
0.0
 11
0.0
 21
-2.5
 31
0.0
  0
LINE
  5
AF
330
A9
100
AcDbEntity
  8
FORMAT
 62
     0
100
AcDbLine
 10
0.0
 20
0.0
 30
0.0
 11
2.5
 21
0.0
 31
0.0
  0
LINE
  5
B0
330
A9
100
AcDbEntity
  8
FORMAT
 62
     0
100
AcDbLine
 10
0.0
 20
5.0
 30
0.0
 11
0.0
 21
47.5
 31
0.0
  0
LINE
  5
B1
330
A9
100
AcDbEntity
  8
FORMAT
 62
     0
100
AcDbLine
 10
-5.0
 20
0.0
 30
0.0
 11
-47.5
 21
0.0
 31
0.0
  0
LINE
  5
B2
330
A9
100
AcDbEntity
  8
FORMAT
 62
     0
100
AcDbLine
 10
0.0
 20
-5.0
 30
0.0
 11
0.0
 21
-47.5
 31
0.0
  0
LINE
  5
B3
330
A9
100
AcDbEntity
  8
FORMAT
 62
     0
100
AcDbLine
 10
5.0
 20
0.0
 30
0.0
 11
47.5
 21
0.0
 31
0.0
  0
ENDBLK
  5
AB
330
A9
100
AcDbEntity
  8
0
100
AcDbBlockEnd
  0
BLOCK
  5
DA
330
D9
100
AcDbEntity
  8
0
100
AcDbBlockBegin
  2
SW_CENTERMARKSYMBOL_2
 70
     0
 10
0.0
 20
0.0
 30
0.0
  3
SW_CENTERMARKSYMBOL_2
  1

  0
LINE
  5
DC
330
D9
100
AcDbEntity
  8
FORMAT
 62
     0
100
AcDbLine
 10
0.0
 20
0.0
 30
0.0
 11
0.0
 21
2.5
 31
0.0
  0
LINE
  5
DD
330
D9
100
AcDbEntity
  8
FORMAT
 62
     0
100
AcDbLine
 10
0.0
 20
0.0
 30
0.0
 11
-2.5
 21
0.0
 31
0.0
  0
LINE
  5
DE
330
D9
100
AcDbEntity
  8
FORMAT
 62
     0
100
AcDbLine
 10
0.0
 20
0.0
 30
0.0
 11
0.0
 21
-2.5
 31
0.0
  0
LINE
  5
DF
330
D9
100
AcDbEntity
  8
FORMAT
 62
     0
100
AcDbLine
 10
0.0
 20
0.0
 30
0.0
 11
2.5
 21
0.0
 31
0.0
  0
LINE
  5
E0
330
D9
100
AcDbEntity
  8
FORMAT
 62
     0
100
AcDbLine
 10
0.0
 20
5.0
 30
0.0
 11
0.0
 21
9.5
 31
0.0
  0
LINE
  5
E1
330
D9
100
AcDbEntity
  8
FORMAT
 62
     0
100
AcDbLine
 10
-5.0
 20
0.0
 30
0.0
 11
-9.5
 21
0.0
 31
0.0
  0
LINE
  5
E2
330
D9
100
AcDbEntity
  8
FORMAT
 62
     0
100
AcDbLine
 10
0.0
 20
-5.0
 30
0.0
 11
0.0
 21
-9.5
 31
0.0
  0
LINE
  5
E3
330
D9
100
AcDbEntity
  8
FORMAT
 62
     0
100
AcDbLine
 10
5.0
 20
0.0
 30
0.0
 11
9.5
 21
0.0
 31
0.0
  0
ENDBLK
  5
DB
330
D9
100
AcDbEntity
  8
0
100
AcDbBlockEnd
  0
BLOCK
  5
E6
330
E5
100
AcDbEntity
  8
0
100
AcDbBlockBegin
  2
SW_CENTERMARKSYMBOL_3
 70
     0
 10
0.0
 20
0.0
 30
0.0
  3
SW_CENTERMARKSYMBOL_3
  1

  0
LINE
  5
E8
330
E5
100
AcDbEntity
  8
FORMAT
 62
     0
100
AcDbLine
 10
0.0
 20
0.0
 30
0.0
 11
0.0
 21
2.5
 31
0.0
  0
LINE
  5
E9
330
E5
100
AcDbEntity
  8
FORMAT
 62
     0
100
AcDbLine
 10
0.0
 20
0.0
 30
0.0
 11
-2.5
 21
0.0
 31
0.0
  0
LINE
  5
EA
330
E5
100
AcDbEntity
  8
FORMAT
 62
     0
100
AcDbLine
 10
0.0
 20
0.0
 30
0.0
 11
0.0
 21
-2.5
 31
0.0
  0
LINE
  5
EB
330
E5
100
AcDbEntity
  8
FORMAT
 62
     0
100
AcDbLine
 10
0.0
 20
0.0
 30
0.0
 11
2.5
 21
0.0
 31
0.0
  0
LINE
  5
EC
330
E5
100
AcDbEntity
  8
FORMAT
 62
     0
100
AcDbLine
 10
0.0
 20
5.0
 30
0.0
 11
0.0
 21
9.5
 31
0.0
  0
LINE
  5
ED
330
E5
100
AcDbEntity
  8
FORMAT
 62
     0
100
AcDbLine
 10
-5.0
 20
0.0
 30
0.0
 11
-9.5
 21
0.0
 31
0.0
  0
LINE
  5
EE
330
E5
100
AcDbEntity
  8
FORMAT
 62
     0
100
AcDbLine
 10
0.0
 20
-5.0
 30
0.0
 11
0.0
 21
-9.5
 31
0.0
  0
LINE
  5
EF
330
E5
100
AcDbEntity
  8
FORMAT
 62
     0
100
AcDbLine
 10
5.0
 20
0.0
 30
0.0
 11
9.5
 21
0.0
 31
0.0
  0
ENDBLK
  5
E7
330
E5
100
AcDbEntity
  8
0
100
AcDbBlockEnd
  0
ENDSEC
  0
SECTION
  2
ENTITIES
  0
LINE
  5
83
330
1F
100
AcDbEntity
  8
0
  6
Continuous
 62
     7
370
    25
100
AcDbLine
 10
95.8043315824
 20
171.1509918852
 30
0.0
 11
95.8043315824
 21
196.4980488544
 31
0.0
  0
LINE
  5
84
330
1F
100
AcDbEntity
  8
0
  6
Continuous
 62
     7
370
    25
100
AcDbLine
 10
81.8043315824
 20
196.4980488544
 30
0.0
 11
81.8043315824
 21
171.1423632556
 31
0.0
  0
LINE
  5
85
330
1F
100
AcDbEntity
  8
0
  6
Continuous
 62
     7
370
    25
100
AcDbLine
 10
141.153023199
 20
57.4980488544
 30
0.0
 11
253.8043315824
 21
57.4980488544
 31
0.0
  0
LINE
  5
86
330
1F
100
AcDbEntity
  8
0
  6
Continuous
 62
     7
370
    25
100
AcDbLine
 10
253.8043315824
 20
147.4980488544
 30
0.0
 11
141.150041589
 21
147.4980488544
 31
0.0
  0
CIRCLE
  5
87
330
1F
100
AcDbEntity
  8
0
  6
Continuous
 62
     7
370
    25
100
AcDbCircle
 10
88.8043315824
 20
102.4980488544
 30
0.0
 40
55.0
  0
CIRCLE
  5
88
330
1F
100
AcDbEntity
  8
0
  6
Continuous
 62
     7
370
    25
100
AcDbCircle
 10
88.8043315824
 20
102.4980488544
 30
0.0
 40
68.99999999999997
  0
LINE
  5
89
330
1F
100
AcDbEntity
  8
0
  6
Continuous
 62
     7
370
    25
100
AcDbLine
 10
95.8043315824
 20
196.4980488544
 30
0.0
 11
81.8043315824
 21
196.4980488544
 31
0.0
  0
LINE
  5
8A
330
1F
100
AcDbEntity
  8
0
  6
Continuous
 62
     7
370
    25
100
AcDbLine
 10
253.8043315824
 20
147.4980488544
 30
0.0
 11
253.8043315824
 21
57.4980488544
 31
0.0
  0
INSERT
  5
96
330
1F
100
AcDbEntity
  8
FORMAT
 62
     7
100
AcDbBlockReference
  2
SW_CENTERMARKSYMBOL_0
 10
88.8043315824
 20
102.4980488544
 30
0.0
  0
LINE
  5
97
330
1F
100
AcDbEntity
  8
0
  6
Continuous
 62
     7
370
    25
100
AcDbLine
 10
-334.0931363692
 20
171.4980488544
 30
0.0
 11
-335.1803421881
 21
171.4980488544
 31
0.0
  0
LINE
  5
98
330
1F
100
AcDbEntity
  8
0
  6
Continuous
 62
     7
370
    25
100
AcDbLine
 10
-90.0931363692
 20
171.4980488544
 30
0.0
 11
-320.1803421881
 21
171.4980488544
 31
0.0
  0
LINE
  5
99
330
1F
100
AcDbEntity
  8
0
  6
Continuous
 62
     7
370
    25
100
AcDbLine
 10
-75.1803421881
 20
171.4980488544
 30
0.0
 11
-76.1803421881
 21
171.4980488544
 31
0.0
  0
LINE
  5
9A
330
1F
100
AcDbEntity
  8
0
  6
Continuous
 62
     7
370
    25
100
AcDbLine
 10
-335.1803421881
 20
33.4980488544
 30
0.0
 11
-75.1803421881
 21
33.4980488544
 31
0.0
  0
LINE
  5
9B
330
1F
100
AcDbEntity
  8
0
  6
Continuous
 62
     7
370
    25
100
AcDbLine
 10
-76.1803421881
 20
171.4980488544
 30
0.0
 11
-76.1803421881
 21
196.4980488544
 31
0.0
  0
LINE
  5
9C
330
1F
100
AcDbEntity
  8
0
  6
Continuous
 62
     7
370
    25
100
AcDbLine
 10
-90.1803421881
 20
196.4980488544
 30
0.0
 11
-90.1803421881
 21
171.4893145141
 31
0.0
  0
LINE
  5
9D
330
1F
100
AcDbEntity
  8
0
  6
Continuous
 62
     7
370
    25
100
AcDbLine
 10
-320.1803421881
 20
171.4980488544
 30
0.0
 11
-320.1803421881
 21
196.4980488544
 31
0.0
  0
LINE
  5
9E
330
1F
100
AcDbEntity
  8
0
  6
Continuous
 62
     7
370
    25
100
AcDbLine
 10
-334.1803421881
 20
196.4980488544
 30
0.0
 11
-334.1803421881
 21
171.4893145141
 31
0.0
  0
CIRCLE
  5
9F
330
1F
100
AcDbEntity
  8
0
  6
Continuous
 62
     7
370
    25
100
AcDbCircle
 10
-205.1803421881
 20
102.4980488544
 30
0.0
 40
36.80000000000001
  0
CIRCLE
  5
A0
330
1F
100
AcDbEntity
  8
0
  6
Continuous
 62
     7
370
    25
100
AcDbCircle
 10
-205.1803421881
 20
102.4980488544
 30
0.0
 40
45.0
  0
LINE
  5
A1
330
1F
100
AcDbEntity
  8
0
  6
Continuous
 62
     7
370
    25
100
AcDbLine
 10
-335.1803421881
 20
102.4980488544
 30
0.0
 11
-335.1803421881
 21
171.4980488544
 31
0.0
  0
LINE
  5
A2
330
1F
100
AcDbEntity
  8
0
  6
Continuous
 62
     7
370
    25
100
AcDbLine
 10
-335.1803421881
 20
33.4980488544
 30
0.0
 11
-335.1803421881
 21
102.4980488544
 31
0.0
  0
LINE
  5
A3
330
1F
100
AcDbEntity
  8
0
  6
Continuous
 62
     7
370
    25
100
AcDbLine
 10
-75.1803421881
 20
102.4980488544
 30
0.0
 11
-75.1803421881
 21
171.4980488544
 31
0.0
  0
LINE
  5
A4
330
1F
100
AcDbEntity
  8
0
  6
Continuous
 62
     7
370
    25
100
AcDbLine
 10
-75.1803421881
 20
33.4980488544
 30
0.0
 11
-75.1803421881
 21
102.4980488544
 31
0.0
  0
SPLINE
  5
A5
330
1F
100
AcDbEntity
  8
0
  6
Continuous
 62
     7
370
    25
100
AcDbSpline
210
0.0
220
0.0
230
1.0
 70
     8
 71
     3
 72
    17
 73
    13
 74
     0
 42
0.00000001
 43
0.00000001
 40
0.0
 40
0.0
 40
0.0
 40
0.0
 40
0.1069961512857103
 40
0.2139791165783827
 40
0.3213049282158957
 40
0.4288619275343048
 40
0.536043857965802
 40
0.6428293933890149
 40
0.7498156527814165
 40
0.8572855683583327
 40
0.9647697587261224
 40
1.0
 40
1.0
 40
1.0
 40
1.0
 10
-320.1803421880604
 20
171.4980488544401
 30
0.0
 10
-320.2573312447228
 20
171.4900183486305
 30
0.0
 10
-320.4112998700691
 20
171.4739583266749
 30
0.0
 10
-321.6110416651118
 20
171.3621790865345
 30
0.0
 10
-323.3811101104571
 20
171.2372940258036
 30
0.0
 10
-325.5972160266107
 20
171.1468654635637
 30
0.0
 10
-327.986535785264
 20
171.1330760154663
 30
0.0
 10
-330.2768469487676
 20
171.2005068239308
 30
0.0
 10
-332.2349853514861
 20
171.3213369104976
 30
0.0
 10
-333.5754146264449
 20
171.436668622977
 30
0.0
 10
-334.2159520619455
 20
171.5016129642688
 30
0.0
 10
-334.1174519410632
 20
171.4917262358328
 30
0.0
 10
-334.0931363691601
 20
171.4892856149075
 30
0.0
  0
SPLINE
  5
A6
330
1F
100
AcDbEntity
  8
0
  6
Continuous
 62
     7
370
    25
100
AcDbSpline
210
0.0
220
0.0
230
1.0
 70
     8
 71
     3
 72
    17
 73
    13
 74
     0
 42
0.00000001
 43
0.00000001
 40
0.0
 40
0.0
 40
0.0
 40
0.0
 40
0.1069961512857102
 40
0.213979116578383
 40
0.321304928215896
 40
0.4288619275343042
 40
0.5360438579658013
 40
0.6428293933890143
 40
0.7498156527814162
 40
0.8572855683583313
 40
0.964769758726121
 40
1.0
 40
1.0
 40
1.0
 40
1.0
 10
-76.18034218806038
 20
171.4980488544401
 30
0.0
 10
-76.25733124472269
 20
171.4900183486305
 30
0.0
 10
-76.41129987006897
 20
171.4739583266749
 30
0.0
 10
-77.61104166511193
 20
171.3621790865345
 30
0.0
 10
-79.38111011045712
 20
171.2372940258036
 30
0.0
 10
-81.59721602661075
 20
171.1468654635637
 30
0.0
 10
-83.98653578526408
 20
171.1330760154663
 30
0.0
 10
-86.27684694876758
 20
171.2005068239308
 30
0.0
 10
-88.23498535148603
 20
171.3213369104976
 30
0.0
 10
-89.57541462644497
 20
171.436668622977
 30
0.0
 10
-90.2159520619455
 20
171.5016129642688
 30
0.0
 10
-90.11745194106321
 20
171.4917262358328
 30
0.0
 10
-90.0931363691601
 20
171.4892856149075
 30
0.0
  0
LINE
  5
A7
330
1F
100
AcDbEntity
  8
0
  6
Continuous
 62
     7
370
    25
100
AcDbLine
 10
-76.1803421881
 20
196.4980488544
 30
0.0
 11
-90.1803421881
 21
196.4980488544
 31
0.0
  0
LINE
  5
A8
330
1F
100
AcDbEntity
  8
0
  6
Continuous
 62
     7
370
    25
100
AcDbLine
 10
-320.1803421881
 20
196.4980488544
 30
0.0
 11
-334.1803421881
 21
196.4980488544
 31
0.0
  0
INSERT
  5
B4
330
1F
100
AcDbEntity
  8
FORMAT
 62
     7
100
AcDbBlockReference
  2
SW_CENTERMARKSYMBOL_1
 10
-205.1803421881
 20
102.4980488544
 30
0.0
  0
LINE
  5
B5
330
1F
100
AcDbEntity
  8
0
  6
Continuous
 62
     7
370
    25
100
AcDbLine
 10
157.8043315824
 20
438.5175023795
 30
0.0
 11
157.8043315824
 21
523.5175023795
 31
0.0
  0
LINE
  5
B6
330
1F
100
AcDbEntity
  8
0
  6
Continuous
 62
     7
370
    25
100
AcDbLine
 10
157.8043315824
 20
263.5175023795
 30
0.0
 11
157.8043315824
 21
348.5237739974
 31
0.0
  0
LINE
  5
B7
330
1F
100
AcDbEntity
  8
0
  6
Continuous
 62
     7
370
    25
100
AcDbLine
 10
19.8043315824
 20
523.5175023795
 30
0.0
 11
19.8043315824
 21
263.5175023795
 31
0.0
  0
LINE
  5
B8
330
1F
100
AcDbEntity
  8
0
  6
Continuous
 62
     7
370
    25
100
AcDbLine
 10
157.8002434279
 20
348.5175023795
 30
0.0
 11
253.8043315824
 21
348.5175023795
 31
0.0
  0
LINE
  5
B9
330
1F
100
AcDbEntity
  8
0
  6
Continuous
 62
     7
370
    25
100
AcDbLine
 10
253.8043315824
 20
438.5175023795
 30
0.0
 11
157.8043315824
 21
438.5175023795
 31
0.0
  0
SPLINE
  5
BA
330
1F
100
AcDbEntity
  8
0
  6
Continuous
 62
     7
370
    25
100
AcDbSpline
210
0.0
220
0.0
230
1.0
 70
     8
 71
     3
 72
    44
 73
    40
 74
     0
 42
0.00000001
 43
0.00000001
 40
0.0
 40
0.0
 40
0.0
 40
0.0
 40
0.0229508635933822
 40
0.045902308671981
 40
0.0695916165704756
 40
0.0932826175118673
 40
0.116212788276787
 40
0.1391447645270537
 40
0.1626467920910781
 40
0.1861505792274178
 40
0.2110411239442032
 40
0.2359330971478915
 40
0.2613728942052891
 40
0.2868129914190646
 40
0.3153021263988582
 40
0.3437888599315357
 40
0.3731903592587164
 40
0.4025846923428271
 40
0.4436750615367512
 40
0.4647996000149339
 40
0.485922390927206
 40
0.5065064564059779
 40
0.5270908454115524
 40
0.5483235398468919
 40
0.569558451213815
 40
0.6094471772573017
 40
0.6501544344156774
 40
0.6979930186930976
 40
0.7468021790685366
 40
0.7753115459168267
 40
0.803818941851939
 40
0.8332195919559039
 40
0.8626160493201119
 40
0.8854967818924454
 40
0.908375726118182
 40
0.931895553607837
 40
0.9554137587756565
 40
0.9783159242859651
 40
1.0
 40
1.0
 40
1.0
 40
1.0
 10
157.8043315823923
 20
438.5175023794615
 30
0.0
 10
157.7884647812276
 20
438.4932476513466
 30
0.0
 10
157.7567307768954
 20
438.4447375805969
 30
0.0
 10
157.5025736213446
 20
438.0538839784534
 30
0.0
 10
157.0949420982126
 20
437.4234831886274
 30
0.0
 10
156.531784672381
 20
436.5430358475503
 30
0.0
 10
155.8376549408971
 20
435.4432132343139
 30
0.0
 10
155.026184627799
 20
434.1345330387568
 30
0.0
 10
154.1009377449254
 20
432.6100491773825
 30
0.0
 10
153.0578404554571
 20
430.8442093244445
 30
0.0
 10
151.9165485041547
 20
428.8474107474023
 30
0.0
 10
150.6865866610014
 20
426.6039243191826
 30
0.0
 10
149.4108153180979
 20
424.1569934178132
 30
0.0
 10
148.063417660591
 20
421.4064823156862
 30
0.0
 10
146.6822512387255
 20
418.3524037846364
 30
0.0
 10
145.2977201350323
 20
414.9430382209709
 30
0.0
 10
144.0103053674574
 20
411.2924193689678
 30
0.0
 10
142.7290053285289
 20
406.8954068923337
 30
0.0
 10
141.8374478588695
 20
402.6392670974679
 30
0.0
 10
141.334032517859
 20
398.6532635423137
 30
0.0
 10
141.122961021438
 20
395.6072301839166
 30
0.0
 10
141.0915812657347
 20
392.5710848344065
 30
0.0
 10
141.2328067668135
 20
389.5369838599256
 30
0.0
 10
141.5513348853349
 20
386.5026330598778
 30
0.0
 10
142.178361339827
 20
382.6098991722759
 30
0.0
 10
143.2951240596073
 20
377.9603545048302
 30
0.0
 10
145.1106841725541
 20
372.4685574333686
 30
0.0
 10
147.3467887909908
 20
367.0807690684032
 30
0.0
 10
149.4879340366013
 20
362.6954790260785
 30
0.0
 10
151.2545108568461
 20
359.3769639735114
 30
0.0
 10
152.6371830222869
 20
356.913558209286
 30
0.0
 10
153.934796004237
 20
354.6982408721296
 30
0.0
 10
155.0230968627476
 20
352.9043865158241
 30
0.0
 10
155.8929876900646
 20
351.5034840572146
 30
0.0
 10
156.5750017453477
 20
350.4240714114737
 30
0.0
 10
157.1253020240164
 20
349.5643902744581
 30
0.0
 10
157.5209093756193
 20
348.9528770872263
 30
0.0
 10
157.7620126636033
 20
348.5821825943507
 30
0.0
 10
157.7877323213041
 20
348.5428856675554
 30
0.0
 10
157.8002408214514
 20
348.5237739973954
 30
0.0
  0
LINE
  5
BB
330
1F
100
AcDbEntity
  8
0
  6
Continuous
 62
     7
370
    25
100
AcDbLine
 10
19.8043315824
 20
523.5175023795
 30
0.0
 11
157.8043315824
 21
523.5175023795
 31
0.0
  0
LINE
  5
BC
330
1F
100
AcDbEntity
  8
0
  6
Continuous
 62
     7
370
    25
100
AcDbLine
 10
19.8043315824
 20
263.5175023795
 30
0.0
 11
157.8043315824
 21
263.5175023795
 31
0.0
  0
LINE
  5
BD
330
1F
100
AcDbEntity
  8
0
  6
Continuous
 62
     7
370
    25
100
AcDbLine
 10
253.8043315824
 20
438.5175023795
 30
0.0
 11
253.8043315824
 21
348.5175023795
 31
0.0
  0
LINE
  5
BE
330
1F
100
AcDbEntity
  8
0
  6
Continuous
 62
     7
370
    25
100
AcDbLine
 10
368.1489534721
 20
33.4980488544
 30
0.0
 11
628.1489534721
 21
33.4980488544
 31
0.0
  0
LINE
  5
BF
330
1F
100
AcDbEntity
  8
0
  6
Continuous
 62
     7
370
    25
100
AcDbLine
 10
369.1489534721
 20
171.4980488544
 30
0.0
 11
368.1489534721
 21
171.4980488544
 31
0.0
  0
LINE
  5
C0
330
1F
100
AcDbEntity
  8
0
  6
Continuous
 62
     7
370
    25
100
AcDbLine
 10
613.1489534721
 20
171.4980488544
 30
0.0
 11
383.0617476532
 21
171.4980488544
 31
0.0
  0
LINE
  5
C1
330
1F
100
AcDbEntity
  8
0
  6
Continuous
 62
     7
370
    25
100
AcDbLine
 10
628.1489534721
 20
171.4980488544
 30
0.0
 11
627.0617476532
 21
171.4980488544
 31
0.0
  0
LINE
  5
C2
330
1F
100
AcDbEntity
  8
0
  6
Continuous
 62
     7
370
    25
100
AcDbLine
 10
383.1489534721
 20
171.4980488544
 30
0.0
 11
383.1489534721
 21
196.4980488544
 31
0.0
  0
LINE
  5
C3
330
1F
100
AcDbEntity
  8
0
  6
Continuous
 62
     7
370
    25
100
AcDbLine
 10
369.1489534721
 20
196.4980488544
 30
0.0
 11
369.1489534721
 21
171.4980488544
 31
0.0
  0
LINE
  5
C4
330
1F
100
AcDbEntity
  8
0
  6
Continuous
 62
     7
370
    25
100
AcDbLine
 10
627.1489534721
 20
171.4980488544
 30
0.0
 11
627.1489534721
 21
196.4980488544
 31
0.0
  0
LINE
  5
C5
330
1F
100
AcDbEntity
  8
0
  6
Continuous
 62
     7
370
    25
100
AcDbLine
 10
613.1489534721
 20
196.4980488544
 30
0.0
 11
613.1489534721
 21
171.4980488544
 31
0.0
  0
LINE
  5
C6
330
1F
100
AcDbEntity
  8
0
  6
Continuous
 62
     7
370
    25
100
AcDbLine
 10
628.1489534721
 20
171.4980488544
 30
0.0
 11
628.1489534721
 21
33.4980488544
 31
0.0
  0
LINE
  5
C7
330
1F
100
AcDbEntity
  8
0
  6
Continuous
 62
     7
370
    25
100
AcDbLine
 10
368.1489534721
 20
171.4980488544
 30
0.0
 11
368.1489534721
 21
33.4980488544
 31
0.0
  0
ARC
  5
C8
330
1F
100
AcDbEntity
  8
0
  6
Continuous
 62
     7
370
    25
100
AcDbCircle
 10
620.1486940276
 20
240.3071128241
 30
0.0
 40
69.1641789673154
100
AcDbArc
 50
264.191452851
 51
275.7363694733
  0
ARC
  5
C9
330
1F
100
AcDbEntity
  8
0
  6
Continuous
 62
     7
370
    25
100
AcDbCircle
 10
376.1486940276
 20
240.3071128241
 30
0.0
 40
69.16417896731697
100
AcDbArc
 50
264.191452851
 51
275.7363694733
  0
LINE
  5
CA
330
1F
100
AcDbEntity
  8
0
  6
Continuous
 62
     7
370
    25
100
AcDbLine
 10
383.1489534721
 20
196.4980488544
 30
0.0
 11
369.1489534721
 21
196.4980488544
 31
0.0
  0
LINE
  5
CB
330
1F
100
AcDbEntity
  8
0
  6
Continuous
 62
     7
370
    25
100
AcDbLine
 10
627.1489534721
 20
196.4980488544
 30
0.0
 11
613.1489534721
 21
196.4980488544
 31
0.0
  0
LINE
  5
CC
330
1F
100
AcDbEntity
  8
0
  6
Continuous
 62
     7
370
    25
100
AcDbLine
 10
19.8043315824
 20
-41.182171427
 30
0.0
 11
19.8043315824
 21
-301.182171427
 31
0.0
  0
LINE
  5
CD
330
1F
100
AcDbEntity
  8
0
  6
Continuous
 62
     7
370
    25
100
AcDbLine
 10
157.8043315824
 20
-126.1884430449
 30
0.0
 11
157.8043315824
 21
-41.182171427
 31
0.0
  0
LINE
  5
CE
330
1F
100
AcDbEntity
  8
0
  6
Continuous
 62
     7
370
    25
100
AcDbLine
 10
157.8043315824
 20
-301.182171427
 30
0.0
 11
157.8043315824
 21
-216.182171427
 31
0.0
  0
LINE
  5
CF
330
1F
100
AcDbEntity
  8
0
  6
Continuous
 62
     7
370
    25
100
AcDbLine
 10
157.8043315824
 20
-216.182171427
 30
0.0
 11
253.8043315824
 21
-216.182171427
 31
0.0
  0
LINE
  5
D0
330
1F
100
AcDbEntity
  8
0
  6
Continuous
 62
     7
370
    25
100
AcDbLine
 10
253.8043315824
 20
-126.182171427
 30
0.0
 11
157.8002434279
 21
-126.182171427
 31
0.0
  0
CIRCLE
  5
D1
330
1F
100
AcDbEntity
  8
0
  6
Continuous
 62
     7
370
    25
100
AcDbCircle
 10
88.8043315824
 20
-49.182171427
 30
0.0
 40
7.000000000000021
  0
CIRCLE
  5
D2
330
1F
100
AcDbEntity
  8
0
  6
Continuous
 62
     7
370
    25
100
AcDbCircle
 10
88.8043315824
 20
-49.182171427
 30
0.0
 40
5.000000000000007
  0
CIRCLE
  5
D3
330
1F
100
AcDbEntity
  8
0
  6
Continuous
 62
     7
370
    25
100
AcDbCircle
 10
88.8043315824
 20
-293.182171427
 30
0.0
 40
5.0
  0
CIRCLE
  5
D4
330
1F
100
AcDbEntity
  8
0
  6
Continuous
 62
     7
370
    25
100
AcDbCircle
 10
88.8043315824
 20
-293.182171427
 30
0.0
 40
7.0
  0
SPLINE
  5
D5
330
1F
100
AcDbEntity
  8
0
  6
Continuous
 62
     7
370
    25
100
AcDbSpline
210
0.0
220
0.0
230
1.0
 70
     8
 71
     3
 72
    41
 73
    37
 74
     0
 42
0.00000001
 43
0.00000001
 40
0.0
 40
0.0
 40
0.0
 40
0.0
 40
0.0012177114024915
 40
0.024878862010319
 40
0.0485407211622763
 40
0.0916857071188036
 40
0.1359372876081648
 40
0.1821418030817128
 40
0.229359021246919
 40
0.256060312983477
 40
0.2827621472994604
 40
0.3101186341309391
 40
0.337473345579542
 40
0.3610643334194523
 40
0.3846527330498786
 40
0.408863176433488
 40
0.4330693470006177
 40
0.4728354503001875
 40
0.493305356364109
 40
0.513774935912287
 40
0.5535532793566252
 40
0.5944149391570015
 40
0.6201044992869625
 40
0.6457985370110688
 40
0.6722232280868632
 40
0.6986502865565472
 40
0.7248322512537755
 40
0.7510143441354123
 40
0.7778155642737182
 40
0.8046151732982274
 40
0.8333473545415208
 40
0.8620757093139604
 40
0.8919135862485579
 40
0.9217463556638527
 40
0.9604407109103286
 40
1.0
 40
1.0
 40
1.0
 40
1.0
 10
157.8002408214514
 20
-126.1884430449161
 30
0.0
 10
157.8015926912928
 20
-126.1863705988542
 30
0.0
 10
157.8292125223726
 20
-126.1440287931581
 30
0.0
 10
157.7252139548578
 20
-126.3032004678266
 30
0.0
 10
157.4039437526344
 20
-126.7976669513005
 30
0.0
 10
156.6137750681131
 20
-128.0223052849871
 30
0.0
 10
155.1779521562851
 20
-130.3050048446191
 30
0.0
 10
153.276970223968
 20
-133.4530187738317
 30
0.0
 10
151.3625161074
 20
-136.8263465718419
 30
0.0
 10
149.6766446211687
 20
-140.0185591851905
 30
0.0
 10
148.3054174537592
 20
-142.7833971845918
 30
0.0
 10
146.9360716988906
 20
-145.7674352592981
 30
0.0
 10
145.6670452327411
 20
-148.820736487803
 30
0.0
 10
144.5349743405155
 20
-151.8822819478336
 30
0.0
 10
143.5457361241748
 20
-154.9454624740877
 30
0.0
 10
142.6763584580492
 20
-158.1606056549305
 30
0.0
 10
141.8085193821895
 20
-162.2329162375173
 30
0.0
 10
141.2767500880691
 20
-166.2824035033795
 30
0.0
 10
141.0924523533303
 20
-170.2050438812352
 30
0.0
 10
141.1302142059277
 20
-174.1383495748235
 30
0.0
 10
141.594204661671
 20
-179.0333630786508
 30
0.0
 10
142.5959971602033
 20
-183.9878598251507
 30
0.0
 10
143.7420750767207
 20
-188.0791995485459
 30
0.0
 10
144.8495097903803
 20
-191.3840574122076
 30
0.0
 10
146.0731024286678
 20
-194.5576814080295
 30
0.0
 10
147.3743876004663
 20
-197.5775152317054
 30
0.0
 10
148.706310381221
 20
-200.4080549585871
 30
0.0
 10
150.0487803859001
 20
-203.0643840839066
 30
0.0
 10
151.3752404889697
 20
-205.5399926915497
 30
0.0
 10
152.6874116413203
 20
-207.872234588952
 30
0.0
 10
153.9378585811337
 20
-210.0059923804969
 30
0.0
 10
155.1016061462276
 20
-211.9248747166621
 30
0.0
 10
156.1088747726725
 20
-213.5419351563369
 30
0.0
 10
156.9942235331095
 20
-214.9333777612541
 30
0.0
 10
157.6649472565025
 20
-215.9689825071113
 30
0.0
 10
157.7575290397333
 20
-216.1105867387255
 30
0.0
 10
157.8043315823923
 20
-216.1821714269822
 30
0.0
  0
LINE
  5
D6
330
1F
100
AcDbEntity
  8
0
  6
Continuous
 62
     7
370
    25
100
AcDbLine
 10
157.8043315824
 20
-301.182171427
 30
0.0
 11
19.8043315824
 21
-301.182171427
 31
0.0
  0
LINE
  5
D7
330
1F
100
AcDbEntity
  8
0
  6
Continuous
 62
     7
370
    25
100
AcDbLine
 10
157.8043315824
 20
-41.182171427
 30
0.0
 11
19.8043315824
 21
-41.182171427
 31
0.0
  0
LINE
  5
D8
330
1F
100
AcDbEntity
  8
0
  6
Continuous
 62
     7
370
    25
100
AcDbLine
 10
253.8043315824
 20
-126.182171427
 30
0.0
 11
253.8043315824
 21
-216.182171427
 31
0.0
  0
INSERT
  5
E4
330
1F
100
AcDbEntity
  8
FORMAT
 62
     7
100
AcDbBlockReference
  2
SW_CENTERMARKSYMBOL_2
 10
88.8043315824
 20
-293.182171427
 30
0.0
  0
INSERT
  5
F0
330
1F
100
AcDbEntity
  8
FORMAT
 62
     7
100
AcDbBlockReference
  2
SW_CENTERMARKSYMBOL_3
 10
88.8043315824
 20
-49.182171427
 30
0.0
  0
LINE
  5
F1
330
1F
100
AcDbEntity
  8
0
  6
Continuous
 62
     7
370
    25
100
AcDbLine
 10
615.7585089121
 20
-165.0538632233
 30
0.0
 11
603.3466963144
 21
-157.888676326
 31
0.0
  0
LINE
  5
F2
330
1F
100
AcDbEntity
  8
0
  6
Continuous
 62
     7
370
    25
100
AcDbLine
 10
513.3393816572
 20
-105.9285595765
 30
0.0
 11
431.9107458036
 21
-58.9208086864
 31
0.0
  0
LINE
  5
F3
330
1F
100
AcDbEntity
  8
0
  6
Continuous
 62
     7
370
    25
100
AcDbLine
 10
362.9163532517
 20
-178.4355516949
 30
0.0
 11
546.7641163602
 21
-284.5686062319
 31
0.0
  0
LINE
  5
F4
330
1F
100
AcDbEntity
  8
0
  6
Continuous
 62
     7
370
    25
100
AcDbLine
 10
555.1240407229
 20
-185.727022843
 30
0.0
 11
628.508221462
 21
-143.3632370409
 31
0.0
  0
LINE
  5
F5
330
1F
100
AcDbEntity
  8
0
  6
Continuous
 62
     7
370
    25
100
AcDbLine
 10
583.5118784934
 20
-65.4188394266
 30
0.0
 11
510.1253295607
 21
-107.7839923578
 31
0.0
  0
LINE
  5
F6
330
1F
100
AcDbEntity
  8
0
  6
Continuous
 62
     7
370
    25
100
AcDbLine
 10
410.0704037772
 20
-56.95897881
 30
0.0
 11
410.0704037772
 21
-45.1889763207
 31
0.0
  0
LINE
  5
F7
330
1F
100
AcDbEntity
  8
0
  6
Continuous
 62
     7
370
    25
100
AcDbLine
 10
396.0704037772
 20
-45.1889763207
 30
0.0
 11
396.0704037772
 21
-63.1335986339
 31
0.0
  0
SPLINE
  5
F8
330
1F
100
AcDbEntity
  8
0
  6
Continuous
 62
     7
370
    25
100
AcDbSpline
210
0.0
220
0.0
230
1.0
 70
     8
 71
     3
 72
    31
 73
    27
 74
     0
 42
0.00000001
 43
0.00000001
 40
0.0
 40
0.0
 40
0.0
 40
0.0
 40
0.0413459673800621
 40
0.082844387788433
 40
0.1242070734523467
 40
0.1653793876452264
 40
0.2066758762603924
 40
0.2478746789597572
 40
0.2925161632300964
 40
0.3372725864513232
 40
0.3819273315119284
 40
0.433283502407002
 40
0.4847965709165734
 40
0.5360852862881976
 40
0.5730664624589409
 40
0.6101462928368347
 40
0.6470964590757818
 40
0.6841653513872811
 40
0.7213696984869218
 40
0.7584575837854209
 40
0.8121122367198126
 40
0.8658056325163522
 40
0.908697149619866
 40
0.9516908929173727
 40
0.9945946777446097
 40
1.0
 40
1.0
 40
1.0
 40
1.0
 10
506.3079938304189
 20
-125.209445085237
 30
0.0
 10
506.3189657031828
 20
-126.4750225947149
 30
0.0
 10
506.3409499047775
 20
-129.0108441177122
 30
0.0
 10
506.5168165500795
 20
-133.143921296243
 30
0.0
 10
506.7976654956897
 20
-137.4332513733679
 30
0.0
 10
507.1969077671837
 20
-141.8482330058155
 30
0.0
 10
507.7142599604417
 20
-146.3172560769529
 30
0.0
 10
508.3761294118547
 20
-150.9238553290178
 30
0.0
 10
509.2051102428109
 20
-155.6180959595336
 30
0.0
 10
510.2341182361314
 20
-160.3449208927112
 30
0.0
 10
511.5264612854028
 20
-165.1642570095754
 30
0.0
 10
513.1552096141098
 20
-169.9965038631404
 30
0.0
 10
515.2224774914489
 20
-174.7259544757178
 30
0.0
 10
517.4838947994408
 20
-178.6438081556762
 30
0.0
 10
519.8607849281784
 20
-181.7756610965712
 30
0.0
 10
522.2282621866133
 20
-184.2274494768014
 30
0.0
 10
524.8556742134961
 20
-186.3147522800561
 30
0.0
 10
527.7424790063724
 20
-187.9722425202457
 30
0.0
 10
530.8283986972125
 20
-189.1994725247101
 30
0.0
 10
534.5413132720838
 20
-190.1066468788378
 30
0.0
 10
538.8858461802652
 20
-190.4317461934882
 30
0.0
 10
543.4211852492574
 20
-190.0116389249889
 30
0.0
 10
547.5566904905133
 20
-189.0588186002467
 30
0.0
 10
551.215450660866
 20
-187.710226954008
 30
0.0
 10
553.764407584549
 20
-186.5898017166988
 30
0.0
 10
554.9732468530592
 20
-185.7910911197494
 30
0.0
 10
555.108504285785
 20
-185.7017231221601
 30
0.0
  0
SPLINE
  5
F9
330
1F
100
AcDbEntity
  8
0
  6
Continuous
 62
     7
370
    25
100
AcDbSpline
210
0.0
220
0.0
230
1.0
 70
     8
 71
     3
 72
    14
 73
    10
 74
     0
 42
0.00000001
 43
0.00000001
 40
0.0
 40
0.0
 40
0.0
 40
0.0
 40
0.0740734517028123
 40
0.2157209850812647
 40
0.3722934313124698
 40
0.5294470272000443
 40
0.6858198283319394
 40
0.8429257082216939
 40
1.0
 40
1.0
 40
1.0
 40
1.0
 10
510.1585787021789
 20
-107.8414104614998
 30
0.0
 10
509.951149696048
 20
-107.9479244992107
 30
0.0
 10
509.3470629617549
 20
-108.2581208328736
 30
0.0
 10
508.544427831952
 20
-109.3349441539447
 30
0.0
 10
507.7221336584139
 20
-111.1483968198375
 30
0.0
 10
507.0863214698616
 20
-113.6846874434512
 30
0.0
 10
506.637630425242
 20
-116.8740435830352
 30
0.0
 10
506.3600307434284
 20
-120.6859806003888
 30
0.0
 10
506.3253383054134
 20
-123.7017246593216
 30
0.0
 10
506.3079938304189
 20
-125.209445085237
 30
0.0
  0
LWPOLYLINE
  5
FA
330
1F
100
AcDbEntity
  8
0
  6
Continuous
 62
     7
370
    25
100
AcDbPolyline
 90
      102
 70
   128
 43
0.0
 10
446.2039174296
 20
-90.5121003328
 10
446.109537202
 20
-87.063865689
 10
445.8267616582
 20
-83.7379406864
 10
445.3566848018
 20
-80.5471926827
 10
444.7011252688
 20
-77.5039660621
 10
443.8626192916
 20
-74.6200344772
 10
442.8444108871
 20
-71.9065552989
 10
441.6504393057
 20
-69.3740264512
 10
440.2853237915
 20
-67.0322457961
 10
438.7543457112
 20
-64.8902732281
 10
437.0634281217
 20
-62.9563956229
 10
435.2191128546
 20
-61.2380947772
 10
433.2285352074
 20
-59.7420184633
 10
431.0993963382
 20
-58.4739547098
 10
428.8399334718
 20
-57.4388094089
 10
426.458888031
 20
-56.6405873368
 10
423.9654718181
 20
-56.0823766596
 10
421.369331376
 20
-55.7663369859
 10
418.6805106678
 20
-55.6936910119
 10
415.9094122184
 20
-55.8647197907
 10
413.0667568694
 20
-56.2787616452
 10
410.1635423021
 20
-56.9342147279
 10
407.2110004896
 20
-57.8285432181
 10
404.2205542427
 20
-58.9582871327
 10
401.203773017
 20
-60.3190757119
 10
398.1723281528
 20
-61.9056443291
 10
395.1379477216
 20
-63.7118548585
 10
392.1123711517
 20
-65.7307194225
 10
389.1073038111
 20
-67.9544274262
 10
386.1343717215
 20
-70.3743757754
 10
383.2050765797
 20
-72.98120216
 10
380.3307512595
 20
-75.7648212752
 10
377.5225159671
 20
-78.7144638394
 10
374.7912352194
 20
-81.8187182585
 10
372.1474758111
 20
-85.0655747753
 10
369.6014659335
 20
-88.4424719325
 10
367.1630556044
 20
-91.9363451713
 10
364.8416785596
 20
-95.5336773746
 10
362.646315756
 20
-99.2205511631
 10
360.5854606256
 20
-102.9827027384
 10
358.6670862168
 20
-106.8055770668
 10
356.8986143473
 20
-110.6743841902
 10
355.2868868913
 20
-114.5741564455
 10
353.8381393093
 20
-118.4898063714
 10
352.557976524
 20
-122.406185079
 10
351.4513512368
 20
-126.3081408599
 10
350.5225447658
 20
-130.1805778052
 10
349.7751504829
 20
-134.0085142087
 10
349.2120599113
 20
-137.777140528
 10
348.835451539
 20
-141.4718766802
 10
348.6467823908
 20
-145.0784284486
 10
348.6467823908
 20
-148.5828427853
 10
348.835451539
 20
-151.9715617918
 10
349.2120599113
 20
-155.2314751728
 10
349.7751504829
 20
-158.3499709566
 10
350.5225447658
 20
-161.3149842888
 10
351.4513512368
 20
-164.115044109
 10
352.557976524
 20
-166.7393175295
 10
353.8381393093
 20
-169.1776517463
 10
355.2868868913
 20
-171.4206133181
 10
356.8986143473
 20
-173.4595246622
 10
358.6670862168
 20
-175.2864976268
 10
360.5854606256
 20
-176.8944640084
 10
362.646315756
 20
-178.2772028974
 10
364.8416785596
 20
-179.4293647457
 10
367.1630556044
 20
-180.3464920629
 10
369.6014659335
 20
-181.0250366616
 10
372.1474758111
 20
-181.4623733846
 10
374.7912352194
 20
-181.656810261
 10
377.5225159671
 20
-181.6075950523
 10
380.3307512595
 20
-181.3149181627
 10
383.2050765797
 20
-180.7799119021
 10
386.1343717215
 20
-180.0046461058
 10
389.1073038111
 20
-178.9921201267
 10
392.1123711517
 20
-177.7462512309
 10
395.1379477216
 20
-176.2718594433
 10
398.1723281528
 20
-174.5746488992
 10
401.203773017
 20
-172.6611857765
 10
404.2205542427
 20
-170.5388728924
 10
407.2110004896
 20
-168.215921063
 10
410.1635423021
 20
-165.7013173377
 10
413.0667568694
 20
-163.0047902299
 10
415.9094122184
 20
-160.136772079
 10
418.6805106678
 20
-157.1083586902
 10
421.369331376
 20
-153.9312664065
 10
423.9654718181
 20
-150.6177867807
 10
426.458888031
 20
-147.1807390218
 10
428.8399334718
 20
-143.6334204
 10
431.0993963382
 20
-139.9895548017
 10
433.2285352074
 20
-136.2632396352
 10
435.2191128546
 20
-132.4688912899
 10
437.0634281217
 20
-128.6211893624
 10
438.7543457112
 20
-124.735019864
 10
440.2853237915
 20
-120.8254176296
 10
441.6504393057
 20
-116.9075081507
 10
442.8444108871
 20
-112.9964490579
 10
443.8626192916
 20
-109.1073714791
 10
444.7011252688
 20
-105.2553214999
 10
445.3566848018
 20
-101.4552019534
 10
445.8267616582
 20
-97.7217147638
 10
446.109537202
 20
-94.0693040678
 10
446.2039174296
 20
-90.5121003328
  0
LWPOLYLINE
  5
FB
330
1F
100
AcDbEntity
  8
0
  6
Continuous
 62
     7
370
    25
100
AcDbPolyline
 90
       14
 70
   128
 43
0.0
 10
630.0516805381
 20
-196.6451548697
 10
629.9573003105
 20
-193.196920226
 10
629.6745247667
 20
-189.8709952234
 10
629.2044479103
 20
-186.6802472197
 10
628.5488883773
 20
-183.6370205991
 10
627.7103824001
 20
-180.7530890141
 10
626.6921739956
 20
-178.0396098359
 10
625.4982024142
 20
-175.5070809881
 10
624.1330869
 20
-173.165300333
 10
622.6021088197
 20
-171.023327765
 10
620.9111912302
 20
-169.0894501598
 10
619.0668759631
 20
-167.3711493142
 10
617.0762983159
 20
-165.8750730003
 10
615.7585089121
 20
-165.0538632233
  0
LWPOLYLINE
  5
FC
330
1F
100
AcDbEntity
  8
0
  6
Continuous
 62
     7
370
    25
100
AcDbPolyline
 90
       39
 70
   128
 43
0.0
 10
546.7641163602
 20
-284.5686062319
 10
548.6894416681
 20
-285.5624192827
 10
551.0108187129
 20
-286.4795465999
 10
553.449229042
 20
-287.1580911986
 10
555.9952389196
 20
-287.5954279215
 10
558.6389983279
 20
-287.7898647979
 10
561.3702790756
 20
-287.7406495893
 10
564.178514368
 20
-287.4479726996
 10
567.0528396882
 20
-286.912966439
 10
569.98213483
 20
-286.1377006428
 10
572.9550669196
 20
-285.1251746636
 10
575.9601342602
 20
-283.8793057679
 10
578.9857108301
 20
-282.4049139802
 10
582.0200912613
 20
-280.7077034362
 10
585.0515361255
 20
-278.7942403135
 10
588.0683173512
 20
-276.6719274293
 10
591.0587635981
 20
-274.3489756
 10
594.0113054106
 20
-271.8343718747
 10
596.9145199779
 20
-269.1378447669
 10
599.7571753269
 20
-266.269826616
 10
602.5282737763
 20
-263.2414132272
 10
605.2170944845
 20
-260.0643209434
 10
607.8132349266
 20
-256.7508413176
 10
610.3066511395
 20
-253.3137935588
 10
612.6876965803
 20
-249.7664749369
 10
614.9471594467
 20
-246.1226093387
 10
617.0762983159
 20
-242.3962941721
 10
619.0668759631
 20
-238.6019458268
 10
620.9111912302
 20
-234.7542438994
 10
622.6021088197
 20
-230.868074401
 10
624.1330869
 20
-226.9584721666
 10
625.4982024142
 20
-223.0405626877
 10
626.6921739956
 20
-219.1295035949
 10
627.7103824001
 20
-215.2404260161
 10
628.5488883773
 20
-211.3883760369
 10
629.2044479103
 20
-207.5882564903
 10
629.6745247667
 20
-203.8547693007
 10
629.9573003105
 20
-200.2023586047
 10
630.0516805381
 20
-196.6451548697
  0
LWPOLYLINE
  5
FD
330
1F
100
AcDbEntity
  8
0
  6
Continuous
 62
     7
370
    25
100
AcDbPolyline
 90
       91
 70
   128
 43
0.0
 10
436.304422493
 20
-96.2269571155
 10
436.2096862811
 20
-93.1489017428
 10
435.9259391907
 20
-90.1952224484
 10
435.4545636091
 20
-87.380309261
 10
434.7978560308
 20
-84.7178761548
 10
433.9590158691
 20
-82.2208942362
 10
432.9421298689
 20
-79.90152855
 10
431.7521521965
 20
-77.7710788128
 10
430.3948803037
 20
-75.8399243616
 10
428.8769266827
 20
-74.1174735867
 10
427.2056866508
 20
-72.6121180951
 10
425.3893023215
 20
-71.3311918276
 10
423.4366229368
 20
-70.280935328
 10
421.3571617542
 20
-69.4664653405
 10
419.1610496996
 20
-68.891749881
 10
416.8589860103
 20
-68.5595889055
 10
414.4621861091
 20
-68.4716006688
 10
411.9823269642
 20
-68.6282138408
 10
409.4314902
 20
-69.0286654179
 10
406.822103237
 20
-69.6710044401
 10
404.166878746
 20
-70.5521014965
 10
401.4787527139
 20
-71.6676639706
 10
398.7708214205
 20
-73.0122569543
 10
396.0562776349
 20
-74.5793297256
 10
393.3483463415
 20
-76.3612476637
 10
390.6602203094
 20
-78.3493294433
 10
388.0049958184
 20
-80.5338893299
 10
385.3956088553
 20
-82.9042843673
 10
382.8447720912
 20
-85.4489662292
 10
380.3649129463
 20
-88.1555374813
 10
377.9681130451
 20
-91.0108119806
 10
375.6660493557
 20
-94.0008791167
 10
373.4699373012
 20
-97.1111715831
 10
371.3904761186
 20
-100.3265363475
 10
369.4377967339
 20
-103.631308476
 10
367.6214124046
 20
-107.009387451
 10
365.9501723727
 20
-110.4443156113
 10
364.4322187516
 20
-113.9193583321
 10
363.0749468588
 20
-117.4175855547
 10
361.8849691865
 20
-120.9219542676
 10
360.8680831863
 20
-124.4153915388
 10
360.0292430246
 20
-127.880877693
 10
359.3725354463
 20
-131.30152923
 10
358.9011598647
 20
-134.6606810794
 10
358.6174127743
 20
-137.941967791
 10
358.5226765624
 20
-141.1294032658
 10
358.6174127743
 20
-144.2074586386
 10
358.9011598647
 20
-147.1611379329
 10
359.3725354463
 20
-149.9760511203
 10
360.0292430246
 20
-152.6384842265
 10
360.8680831863
 20
-155.1354661452
 10
361.8849691865
 20
-157.4548318313
 10
363.0749468588
 20
-159.5852815685
 10
364.4322187516
 20
-161.5164360197
 10
365.9501723727
 20
-163.2388867946
 10
367.6214124046
 20
-164.7442422862
 10
369.4377967339
 20
-166.0251685538
 10
371.3904761186
 20
-167.0754250533
 10
373.4699373012
 20
-167.8898950408
 10
375.6660493557
 20
-168.4646105003
 10
377.9681130451
 20
-168.7967714758
 10
380.3649129463
 20
-168.8847597125
 10
382.8447720912
 20
-168.7281465405
 10
385.3956088553
 20
-168.3276949634
 10
388.0049958184
 20
-167.6853559412
 10
390.6602203094
 20
-166.8042588848
 10
393.3483463415
 20
-165.6886964107
 10
396.0562776349
 20
-164.344103427
 10
398.7708214205
 20
-162.7770306557
 10
401.4787527139
 20
-160.9951127177
 10
404.166878746
 20
-159.007030938
 10
406.822103237
 20
-156.8224710514
 10
409.4314902
 20
-154.452076014
 10
411.9823269642
 20
-151.9073941521
 10
414.4621861091
 20
-149.2008229
 10
416.8589860103
 20
-146.3455484007
 10
419.1610496996
 20
-143.3554812646
 10
421.3571617542
 20
-140.2451887982
 10
423.4366229368
 20
-137.0298240338
 10
425.3893023215
 20
-133.7250519053
 10
427.2056866508
 20
-130.3469729303
 10
428.8769266827
 20
-126.9120447701
 10
430.3948803037
 20
-123.4370020492
 10
431.7521521965
 20
-119.9387748266
 10
432.9421298689
 20
-116.4344061137
 10
433.9590158691
 20
-112.9409688425
 10
434.7978560308
 20
-109.4754826883
 10
435.4545636091
 20
-106.0548311513
 10
435.9259391907
 20
-102.6956793019
 10
436.2096862811
 20
-99.4143925903
 10
436.304422493
 20
-96.2269571155
  0
LWPOLYLINE
  5
FE
330
1F
100
AcDbEntity
  8
0
  6
Continuous
 62
     7
370
    25
100
AcDbPolyline
 90
       83
 70
   128
 43
0.0
 10
637.8298551311
 20
-122.7602207498
 10
637.7364894965
 20
-119.8935704085
 10
637.4569404993
 20
-116.935945044
 10
636.9928486443
 20
-113.9047011782
 10
636.3469374069
 20
-110.8176273552
 10
635.5229972511
 20
-107.6928397519
 10
634.5258633854
 20
-104.5486758644
 10
633.3613873878
 20
-101.4035868965
 10
632.0364028666
 20
-98.276029481
 10
630.5586853576
 20
-95.1843573684
 10
628.9369066949
 20
-92.14671372
 10
627.1805841205
 20
-89.1809246366
 10
625.3000244337
 20
-86.3043945478
 10
623.3062635065
 20
-83.534004076
 10
621.2110015207
 20
-80.8860109741
 10
619.0265343069
 20
-78.3759547184
 10
616.7656811872
 20
-76.0185653173
 10
614.4417097469
 20
-73.8276768691
 10
612.0682579743
 20
-71.8161463784
 10
609.6592542282
 20
-69.9957783059
 10
607.2288355006
 20
-68.3772552953
 10
604.7912644549
 20
-66.9700754833
 10
602.3608457272
 20
-65.7824967605
 10
599.9518419812
 20
-64.8214883111
 10
597.5783902086
 20
-64.0926897147
 10
595.2544187682
 20
-63.6003778514
 10
592.9935656486
 20
-63.3474418029
 10
590.8090984347
 20
-63.3353658985
 10
588.713836449
 20
-63.5642210045
 10
586.7200755217
 20
-64.032664108
 10
584.8395158349
 20
-64.7379461987
 10
583.0831932605
 20
-65.6759284009
 10
581.4614145978
 20
-66.8411062619
 10
579.9836970889
 20
-68.2266420548
 10
578.6587125676
 20
-69.8244049046
 10
577.49423657
 20
-71.6250185036
 10
576.4971027044
 20
-73.6179161352
 10
575.6731625486
 20
-75.7914026837
 10
575.0272513112
 20
-78.1327232658
 10
574.5631594561
 20
-80.6281380812
 10
574.2836104589
 20
-83.2630030436
 10
574.1902448243
 20
-86.0218557177
 10
574.2836104589
 20
-88.8885060591
 10
574.5631594561
 20
-91.8461314235
 10
575.0272513112
 20
-94.8773752893
 10
575.6731625486
 20
-97.9644491123
 10
576.4971027044
 20
-101.0892367156
 10
577.49423657
 20
-104.2334006032
 10
578.6587125676
 20
-107.378489571
 10
579.9836970889
 20
-110.5060469865
 10
581.4614145978
 20
-113.5977190991
 10
583.0831932605
 20
-116.6353627475
 10
584.8395158349
 20
-119.6011518309
 10
586.7200755217
 20
-122.4776819197
 10
588.713836449
 20
-125.2480723915
 10
590.8090984347
 20
-127.8960654935
 10
592.9935656486
 20
-130.4061217491
 10
595.2544187682
 20
-132.7635111502
 10
597.5783902086
 20
-134.9543995984
 10
599.9518419812
 20
-136.9659300891
 10
602.3608457272
 20
-138.7862981616
 10
604.7912644549
 20
-140.4048211722
 10
607.2288355006
 20
-141.8120009842
 10
609.6592542282
 20
-142.999579707
 10
612.0682579743
 20
-143.9605881565
 10
614.4417097469
 20
-144.6893867528
 10
616.7656811872
 20
-145.1816986161
 10
619.0265343069
 20
-145.4346346646
 10
621.2110015207
 20
-145.446710569
 10
623.3062635065
 20
-145.217855463
 10
625.3000244337
 20
-144.7494123595
 10
627.1805841205
 20
-144.0441302688
 10
628.9369066949
 20
-143.1061480667
 10
630.5586853576
 20
-141.9409702056
 10
632.0364028666
 20
-140.5554344127
 10
633.3613873878
 20
-138.9576715629
 10
634.5258633854
 20
-137.1570579639
 10
635.5229972511
 20
-135.1641603323
 10
636.3469374069
 20
-132.9906737838
 10
636.9928486443
 20
-130.6493532018
 10
637.4569404993
 20
-128.1539383863
 10
637.7364894965
 20
-125.5190734239
 10
637.8298551311
 20
-122.7602207498
  0
LWPOLYLINE
  5
FF
330
1F
100
AcDbEntity
  8
0
  6
Continuous
 62
     7
370
    25
100
AcDbPolyline
 90
       75
 70
   128
 43
0.0
 10
632.0315795254
 20
-119.4129474913
 10
631.9378366671
 20
-116.8105229491
 10
631.6572835115
 20
-114.1186157349
 10
631.1919414506
 20
-111.3566211019
 10
630.5451632846
 20
-108.5444392848
 10
629.721609065
 20
-105.7023321178
 10
628.7272125189
 20
-102.8507770484
 10
627.569138296
 20
-100.0103195962
 10
626.2557303479
 20
-97.2014253221
 10
624.7964518087
 20
-94.4443323738
 10
623.2018168138
 20
-91.7589056691
 10
621.4833147449
 20
-89.164493769
 10
619.6533274489
 20
-86.6797894708
 10
617.725040026
 20
-84.3226951257
 10
615.7123458313
 20
-82.1101936525
 10
613.6297463727
 20
-80.0582261752
 10
611.492246827
 20
-78.1815771663
 10
609.3152479273
 20
-76.4937679249
 10
607.1144350007
 20
-75.0069591555
 10
604.9056649547
 20
-73.7318633491
 10
602.7048520281
 20
-72.6776676003
 10
600.5278531284
 20
-71.8519674136
 10
598.3903535827
 20
-71.2607119778
 10
596.3077541241
 20
-70.9081613019
 10
594.2950599295
 20
-70.7968555215
 10
592.3667725066
 20
-70.9275965974
 10
590.5367852105
 20
-71.2994425371
 10
588.8182831416
 20
-71.9097141821
 10
587.2236481468
 20
-72.7540145112
 10
585.7643696076
 20
-73.8262603211
 10
584.4509616594
 20
-75.1187260563
 10
583.2928874366
 20
-76.6220994715
 10
582.2984908904
 20
-78.3255487269
 10
581.4749366708
 20
-80.2168004314
 10
580.8281585048
 20
-82.2822280732
 10
580.362816444
 20
-84.5069501988
 10
580.0822632884
 20
-86.8749376344
 10
579.9885204301
 20
-89.3691289762
 10
580.0822632884
 20
-91.9715535184
 10
580.362816444
 20
-94.6634607326
 10
580.8281585048
 20
-97.4254553656
 10
581.4749366708
 20
-100.2376371828
 10
582.2984908904
 20
-103.0797443497
 10
583.2928874366
 20
-105.9312994191
 10
584.4509616594
 20
-108.7717568713
 10
585.7643696076
 20
-111.5806511454
 10
587.2236481468
 20
-114.3377440937
 10
588.8182831416
 20
-117.0231707984
 10
590.5367852105
 20
-119.6175826985
 10
592.3667725066
 20
-122.1022869968
 10
594.2950599295
 20
-124.4593813419
 10
596.3077541241
 20
-126.671882815
 10
598.3903535827
 20
-128.7238502924
 10
600.5278531284
 20
-130.6004993013
 10
602.7048520281
 20
-132.2883085426
 10
604.9056649547
 20
-133.7751173121
 10
607.1144350007
 20
-135.0502131184
 10
609.3152479273
 20
-136.1044088672
 10
611.492246827
 20
-136.9301090539
 10
613.6297463727
 20
-137.5213644897
 10
615.7123458313
 20
-137.8739151656
 10
617.725040026
 20
-137.985220946
 10
619.6533274489
 20
-137.8544798701
 10
621.4833147449
 20
-137.4826339304
 10
623.2018168138
 20
-136.8723622854
 10
624.7964518087
 20
-136.0280619564
 10
626.2557303479
 20
-134.9558161464
 10
627.569138296
 20
-133.6633504112
 10
628.7272125189
 20
-132.159976996
 10
629.721609065
 20
-130.4565277407
 10
630.5451632846
 20
-128.5652760362
 10
631.1919414506
 20
-126.4998483943
 10
631.6572835115
 20
-124.2751262687
 10
631.9378366671
 20
-121.9071388331
 10
632.0315795254
 20
-119.4129474913
  0
LWPOLYLINE
  5
100
330
1F
100
AcDbEntity
  8
0
  6
Continuous
 62
     7
370
    25
100
AcDbPolyline
 90
       17
 70
   128
 43
0.0
 10
410.0704037772
 20
-45.1889763207
 10
409.93590074
 20
-44.4006136012
 10
409.5375605048
 20
-43.6425472188
 10
408.8906910633
 20
-42.9439092396
 10
408.0201512455
 20
-42.3315479293
 10
406.9593954083
 20
-41.8289959896
 10
405.7491878037
 20
-41.4555662097
 10
404.4360360313
 20
-41.2256092867
 10
403.0704037772
 20
-41.1479623361
 10
401.7047715231
 20
-41.2256092867
 10
400.3916197506
 20
-41.4555662097
 10
399.181412146
 20
-41.8289959896
 10
398.1206563089
 20
-42.3315479293
 10
397.2501164911
 20
-42.9439092396
 10
396.6032470496
 20
-43.6425472188
 10
396.2049068144
 20
-44.4006136012
 10
396.0704037772
 20
-45.1889763207
  0
ENDSEC
  0
SECTION
  2
OBJECTS
  0
DICTIONARY
  5
C
330
0
100
AcDbDictionary
281
     1
  3
ACAD_GROUP
350
D
  3
ACAD_LAYOUT
350
1A
  3
ACAD_MLINESTYLE
350
17
  3
ACAD_PLOTSETTINGS
350
19
  3
ACAD_PLOTSTYLENAME
350
E
  3
ACAD_SCALELIST
350
47
  3
DWGPROPS
350
101
  0
DICTIONARY
  5
D
102
{ACAD_REACTORS
330
C
102
}
330
C
100
AcDbDictionary
281
     1
  0
DICTIONARY
  5
1A
102
{ACAD_REACTORS
330
C
102
}
330
C
100
AcDbDictionary
281
     1
  3
Layout1
350
1E
  3
Layout2
350
26
  3
Model
350
22
  0
DICTIONARY
  5
17
102
{ACAD_REACTORS
330
C
102
}
330
C
100
AcDbDictionary
281
     1
  3
Standard
350
18
  0
DICTIONARY
  5
19
102
{ACAD_REACTORS
330
C
102
}
330
C
100
AcDbDictionary
281
     1
  0
ACDBDICTIONARYWDFLT
  5
E
102
{ACAD_REACTORS
330
C
102
}
330
C
100
AcDbDictionary
281
     1
  3
Normal
350
F
100
AcDbDictionaryWithDefault
340
F
  0
DICTIONARY
  5
47
102
{ACAD_REACTORS
330
C
102
}
330
C
100
AcDbDictionary
281
     1
  3
A0
350
48
  3
A1
350
49
  3
A2
350
4A
  3
A3
350
4B
  3
A4
350
4C
  3
A5
350
4D
  3
A6
350
4E
  3
A7
350
4F
  3
A8
350
50
  3
A9
350
51
  3
B0
350
52
  3
B1
350
53
  3
B2
350
54
  3
B3
350
55
  3
B4
350
56
  3
B5
350
57
  3
B6
350
58
  3
B7
350
59
  3
B8
350
5A
  3
B9
350
5B
  3
C0
350
5C
  3
C1
350
5D
  3
C2
350
5E
  3
C3
350
5F
  3
C4
350
60
  3
C5
350
61
  3
C6
350
62
  3
C7
350
63
  3
C8
350
64
  3
C9
350
65
  3
D0
350
66
  3
D1
350
67
  3
D2
350
68
  0
XRECORD
  5
101
102
{ACAD_REACTORS
330
C
102
}
330
C
100
AcDbXrecord
280
     1
  1
DWGPROPS COOKIE
  2

  3

  4

  6

  7

  8
b.kav
  9

300
=
301
=
302
=
303
=
304
=
305
=
306
=
307
=
308
=
309
=
 40
0.0
 41
2459741.481110405
 42
2459741.481110591
  1

 90
        0
  0
LAYOUT
  5
1E
102
{ACAD_REACTORS
330
1A
102
}
330
1A
100
AcDbPlotSettings
  1

  2
none_device
  4

  6

 40
0.0
 41
0.0
 42
0.0
 43
0.0
 44
0.0
 45
0.0
 46
0.0
 47
0.0
 48
0.0
 49
0.0
140
0.0
141
0.0
142
1.0
143
1.0
 70
   688
 72
     1
 73
     0
 74
     5
  7

 75
    16
147
1.0
148
0.0
149
0.0
100
AcDbLayout
  1
Layout1
 70
     1
 71
     1
 10
0.0
 20
0.0
 11
420.0
 21
297.0
 12
0.0
 22
0.0
 32
0.0
 14
1.0000000000E+20
 24
1.0000000000E+20
 34
1.0000000000E+20
 15
-1.0000000000E+20
 25
-1.0000000000E+20
 35
-1.0000000000E+20
146
0.0
 13
0.0
 23
0.0
 33
0.0
 16
1.0
 26
0.0
 36
0.0
 17
0.0
 27
1.0
 37
0.0
 76
     0
330
1B
  0
LAYOUT
  5
26
102
{ACAD_REACTORS
330
1A
102
}
330
1A
100
AcDbPlotSettings
  1

  2
none_device
  4

  6

 40
0.0
 41
0.0
 42
0.0
 43
0.0
 44
0.0
 45
0.0
 46
0.0
 47
0.0
 48
0.0
 49
0.0
140
0.0
141
0.0
142
1.0
143
1.0
 70
   688
 72
     1
 73
     0
 74
     5
  7

 75
    16
147
1.0
148
0.0
149
0.0
100
AcDbLayout
  1
Layout2
 70
     1
 71
     2
 10
0.0
 20
0.0
 11
0.0
 21
0.0
 12
0.0
 22
0.0
 32
0.0
 14
0.0
 24
0.0
 34
0.0
 15
0.0
 25
0.0
 35
0.0
146
0.0
 13
0.0
 23
0.0
 33
0.0
 16
1.0
 26
0.0
 36
0.0
 17
0.0
 27
1.0
 37
0.0
 76
     0
330
23
  0
LAYOUT
  5
22
102
{ACAD_REACTORS
330
1A
102
}
330
1A
100
AcDbPlotSettings
  1

  2
none_device
  4
Letter_(8.50_x_11.00_Inches)
  6

 40
6.35
 41
6.35
 42
6.35000508
 43
6.35000508
 44
215.9
 45
279.4
 46
0.0
 47
0.0
 48
0.0
 49
0.0
140
0.0
141
0.0
142
1.0
143
1.0
 70
  1712
 72
     1
 73
     0
 74
     0
  7

 75
     0
147
1.0
148
0.0
149
0.0
100
AcDbLayout
  1
Model
 70
     1
 71
     0
 10
0.0
 20
0.0
 11
279.4
 21
215.9
 12
0.0
 22
0.0
 32
0.0
 14
0.0
 24
0.0
 34
0.0
 15
279.4
 25
215.9
 35
0.0
146
0.0
 13
0.0
 23
0.0
 33
0.0
 16
1.0
 26
0.0
 36
0.0
 17
0.0
 27
1.0
 37
0.0
 76
     0
330
1F
331
29
  0
MLINESTYLE
  5
18
102
{ACAD_REACTORS
330
17
102
}
330
17
100
AcDbMlineStyle
  2
Standard
 70
     0
  3

 62
   256
 51
90.0
 52
90.0
 71
     2
 49
0.5
 62
   256
  6
BYLAYER
 49
-0.5
 62
   256
  6
BYLAYER
  0
ACDBPLACEHOLDER
  5
F
102
{ACAD_REACTORS
330
E
102
}
330
E
  0
SCALE
  5
48
102
{ACAD_REACTORS
330
47
102
}
330
47
100
AcDbScale
 70
     0
300
1:1
140
1.0
141
1.0
290
     1
  0
SCALE
  5
49
102
{ACAD_REACTORS
330
47
102
}
330
47
100
AcDbScale
 70
     0
300
1:2
140
1.0
141
2.0
290
     0
  0
SCALE
  5
4A
102
{ACAD_REACTORS
330
47
102
}
330
47
100
AcDbScale
 70
     0
300
1:4
140
1.0
141
4.0
290
     0
  0
SCALE
  5
4B
102
{ACAD_REACTORS
330
47
102
}
330
47
100
AcDbScale
 70
     0
300
1:5
140
1.0
141
5.0
290
     0
  0
SCALE
  5
4C
102
{ACAD_REACTORS
330
47
102
}
330
47
100
AcDbScale
 70
     0
300
1:8
140
1.0
141
8.0
290
     0
  0
SCALE
  5
4D
102
{ACAD_REACTORS
330
47
102
}
330
47
100
AcDbScale
 70
     0
300
1:10
140
1.0
141
10.0
290
     0
  0
SCALE
  5
4E
102
{ACAD_REACTORS
330
47
102
}
330
47
100
AcDbScale
 70
     0
300
1:16
140
1.0
141
16.0
290
     0
  0
SCALE
  5
4F
102
{ACAD_REACTORS
330
47
102
}
330
47
100
AcDbScale
 70
     0
300
1:20
140
1.0
141
20.0
290
     0
  0
SCALE
  5
50
102
{ACAD_REACTORS
330
47
102
}
330
47
100
AcDbScale
 70
     0
300
1:30
140
1.0
141
30.0
290
     0
  0
SCALE
  5
51
102
{ACAD_REACTORS
330
47
102
}
330
47
100
AcDbScale
 70
     0
300
1:40
140
1.0
141
40.0
290
     0
  0
SCALE
  5
52
102
{ACAD_REACTORS
330
47
102
}
330
47
100
AcDbScale
 70
     0
300
1:50
140
1.0
141
50.0
290
     0
  0
SCALE
  5
53
102
{ACAD_REACTORS
330
47
102
}
330
47
100
AcDbScale
 70
     0
300
1:100
140
1.0
141
100.0
290
     0
  0
SCALE
  5
54
102
{ACAD_REACTORS
330
47
102
}
330
47
100
AcDbScale
 70
     0
300
2:1
140
2.0
141
1.0
290
     0
  0
SCALE
  5
55
102
{ACAD_REACTORS
330
47
102
}
330
47
100
AcDbScale
 70
     0
300
4:1
140
4.0
141
1.0
290
     0
  0
SCALE
  5
56
102
{ACAD_REACTORS
330
47
102
}
330
47
100
AcDbScale
 70
     0
300
8:1
140
8.0
141
1.0
290
     0
  0
SCALE
  5
57
102
{ACAD_REACTORS
330
47
102
}
330
47
100
AcDbScale
 70
     0
300
10:1
140
10.0
141
1.0
290
     0
  0
SCALE
  5
58
102
{ACAD_REACTORS
330
47
102
}
330
47
100
AcDbScale
 70
     0
300
100:1
140
100.0
141
1.0
290
     0
  0
SCALE
  5
59
102
{ACAD_REACTORS
330
47
102
}
330
47
100
AcDbScale
 70
     0
300
1/128" = 1'-0"
140
0.0078125
141
12.0
290
     0
  0
SCALE
  5
5A
102
{ACAD_REACTORS
330
47
102
}
330
47
100
AcDbScale
 70
     0
300
1/64" = 1'-0"
140
0.015625
141
12.0
290
     0
  0
SCALE
  5
5B
102
{ACAD_REACTORS
330
47
102
}
330
47
100
AcDbScale
 70
     0
300
1/32" = 1'-0"
140
0.03125
141
12.0
290
     0
  0
SCALE
  5
5C
102
{ACAD_REACTORS
330
47
102
}
330
47
100
AcDbScale
 70
     0
300
1/16" = 1'-0"
140
0.0625
141
12.0
290
     0
  0
SCALE
  5
5D
102
{ACAD_REACTORS
330
47
102
}
330
47
100
AcDbScale
 70
     0
300
3/32" = 1'-0"
140
0.09375
141
12.0
290
     0
  0
SCALE
  5
5E
102
{ACAD_REACTORS
330
47
102
}
330
47
100
AcDbScale
 70
     0
300
1/8" = 1'-0"
140
0.125
141
12.0
290
     0
  0
SCALE
  5
5F
102
{ACAD_REACTORS
330
47
102
}
330
47
100
AcDbScale
 70
     0
300
3/16" = 1'-0"
140
0.1875
141
12.0
290
     0
  0
SCALE
  5
60
102
{ACAD_REACTORS
330
47
102
}
330
47
100
AcDbScale
 70
     0
300
1/4" = 1'-0"
140
0.25
141
12.0
290
     0
  0
SCALE
  5
61
102
{ACAD_REACTORS
330
47
102
}
330
47
100
AcDbScale
 70
     0
300
3/8" = 1'-0"
140
0.375
141
12.0
290
     0
  0
SCALE
  5
62
102
{ACAD_REACTORS
330
47
102
}
330
47
100
AcDbScale
 70
     0
300
1/2" = 1'-0"
140
0.5
141
12.0
290
     0
  0
SCALE
  5
63
102
{ACAD_REACTORS
330
47
102
}
330
47
100
AcDbScale
 70
     0
300
3/4" = 1'-0"
140
0.75
141
12.0
290
     0
  0
SCALE
  5
64
102
{ACAD_REACTORS
330
47
102
}
330
47
100
AcDbScale
 70
     0
300
1" = 1'-0"
140
1.0
141
12.0
290
     0
  0
SCALE
  5
65
102
{ACAD_REACTORS
330
47
102
}
330
47
100
AcDbScale
 70
     0
300
1-1/2" = 1'-0"
140
1.5
141
12.0
290
     0
  0
SCALE
  5
66
102
{ACAD_REACTORS
330
47
102
}
330
47
100
AcDbScale
 70
     0
300
3" = 1'-0"
140
3.0
141
12.0
290
     0
  0
SCALE
  5
67
102
{ACAD_REACTORS
330
47
102
}
330
47
100
AcDbScale
 70
     0
300
6" = 1'-0"
140
6.0
141
12.0
290
     0
  0
SCALE
  5
68
102
{ACAD_REACTORS
330
47
102
}
330
47
100
AcDbScale
 70
     0
300
1'-0" = 1'-0"
140
12.0
141
12.0
290
     0
  0
ENDSEC
  0
EOF
